Oops, an error
Loading. Please wait.

Pain Redefined Bass Tab

version 1
version 1

Whole song

Interactive

1,974 views 1 this week
no commentswrite comment
1 2 3 4 5
accurate
x 3
add to favorites
launch autoscroll
font size
0
reset
guitar tuner
Tab Pro tools
  • play this tab
  • loop segment
  • change instrument
  • show fretboard
  • metronome
×
Best way to learn
"Pain Redefined"
Autoscroll
slow
fast
+/-
esc
set tempo
stop
Contributor
Difficulty
intermediate
----------------------------------------------------------------------------
		         Pain Redefined - Disturbed
----------------------------------------------------------------------------

Tabbed By : _godsmack_
e-mail: pearson1991@hotmail.com

Tuning: D A D G

 Intro                                        [x5]
G|--------------------------------------------||
D|-------------------------------------------.||
A|------------------0-----1---------------0--.||
D|-444-2--444-0--44----44----4444-5--4444-----||

 Verse [x2]
G|----------------||-----------------|---------------|
D|---------------.||-----------------|---------------|
A|---------------.||-----------------|---------------|
D|-4-4-44-4-44444-||-00--00-0--00000-|-2-2-22-2-5555-|

 Pre-Chorus
G|--------------------------------------------------------------------||
D|-------------------------------------------------------------------.||
A|----------------------------------------2h3---------------------00-.||
D|-444-4-4-4-4-4h5p4--6h7-4-4-4-44-4h5p4------4-4-4-44-4h5p4-2222-----||

 Chorus                            [x3]
G||--------------------------------||-----------------------------|
D||.------------------------------.||-----------------------------|
A||.----------0---------4-4-------.||-2-2-2-2-2-2-2-2-4-4-4-4-----|
D||---4-4-4-2---0-0-0-0-----3-3-3--||-------------------------2-2-|

 Pre-Verse                                    [x2]
G|--------------------------------------------||
D|-------------------------------------------.||
A|------------------0-----1---------------0--.||
D|-444-2--444-0--44----44----4444-5--4444-----||

 Verse [x2]
G|----------------||-----------------|---------------|
D|---------------.||-----------------|---------------|
A|---------------.||-----------------|---------------|
D|-4-4-44-4-44444-||-00--00-0--00000-|-2-2-22-2-5555-|

 Pre-Chorus
G|--------------------------------------------------------------------||
D|-------------------------------------------------------------------.||
A|----------------------------------------2h3---------------------00-.||
D|-444-4-4-4-4-4h5p4--6h7-4-4-4-44-4h5p4------4-4-4-44-4h5p4-2222-----||

 Chorus                            [x3]
G||--------------------------------||-----------------------------|
D||.------------------------------.||-----------------------------|
A||.----------0---------4-4-------.||-2-2-2-2-2-2-2-2-4-4-4-4-----|
D||---4-4-4-2---0-0-0-0-----3-3-3--||-------------------------2-2-|

 Bridge
G|---|--------------------|-----------4-------|----------------------------|
D|---|--4--6--7---3--4--6-|--4--6--7-----7----|-4--6--7---3--4--6-7\2------|
A|---|--------------------|-----------------5-|----------------------------|
D|-4-|--------------------|-------------------|----------------------------|
                                                                        [x8]
G|-----------4--2-||-----------------------------------------||-----------||
D|----------------||.---------------------------------------.||.---------.||
A|-0-2-2-2-2------||.---------------------------------------.||.---------.||
D|----------------||-4444-4444-3333-3333-4444-4444-3333-3333-||-444-333---||

 Chorus                            [x3]
G||--------------------------------||-----------------------------|
D||.------------------------------.||-----------------------------|
A||.----------0---------4-4-------.||-2-2-2-2-2-2-2-2-4-4-4-4-----|
D||---4-4-4-2---0-0-0-0-----3-3-3--||-------------------------2-2-|

Outro                                         [x4]
G|--------------------------------------------||
D|-------------------------------------------.||
A|------------------0-----1---------------0--.||
D|-444-2--444-0--44----44----4444-5--4444-----||


comments
We did not receive enough feedback on this tab! Please rate:
print report bad tab
1 2 3 4 5
I want to post or [tab]
guest
You may want to rate the tab now too:
select rating
Please do not post tabs as comments. Select "correction" instead!