Oops, an error
Loading. Please wait.

Pain Redefined Tab

version 1
version 1

Intro

Whole song

Interactive

4,844 views 1 this week
5 commentsread comments
1 2 3 4 5
2 more votes to show rating
add to favorites
launch autoscroll
font size
0
reset
how to read this tab
guitar tuner
Autoscroll
slow
fast
+/-
esc
set tempo
stop
Help us to improve Ultimate-Guitar.com Take our survey!
×
Difficulty
Tuning
intermediate
D A D G B E
Disturbed - Pain Redefined
Drop down to D tuning

e:-----------------------------------------------|
B:-----------------------------------------------|
G:-----------------------------------------------|
D:-----------------------------------------------| x2
A:-----6echo----6echo------4echo----4echo--------|
D:0-0-0-----0-0-------0-0-0-----0-0--------------|
   p.m.     p.m.      p.m.      p.m.

e:-------------------------------------------------|
B:-------------------------------------------------|
G:-------------------------------------------------|
D:-------------------------------------------------| x4
A:------6-------4-----3-----0---------4---------3--|
D:0-0-0---0-0-0---0-0---0-0---0-0-0-0-4-0-0-0-0-3--|
  p.m.     p.m.   p.m.  p.m.    p.m.     p.m.


I just sat down and figured out these tabs and I'm pretty sure they're right on.
Go buy Ten Thousand Fists if you already havn't cuz it rocks!

Enjoy \m/
Suggest correction
Give kudos to tab author, rate the tab!
1 2 3 4 5
comments
print report bad tab
5 comments total. Showing first comments.
0 reply
Andrew Zara 41,509 Oct 05, 2005 03:13 PM

I don't think this song is in drop D.Most of the new album is in drop c or drop c#.This song though is drop c tuning.

0 reply
Operator (CA) 715 Oct 06, 2005 02:13 PM

right. This song is in drop C.

0 reply
Peolesdru 39 Nov 25, 2005 12:29 AM

I have trouble with the rhythm, but the basic notes are clearly (In Eb, bottom two strings only):

Ab|-7----5-0-1-----7----5-0-1-----|
Eb|------------2-4------------2-2-|

Transpose to whatever scale you think he's on, but those are the notes. Here would be drop-C, bottom two strings:

G|-8----6-1-2-----8----6-1-2-----|
C|------------5-7------------5-5-|

guest
You may want to rate the tab now too:
select rating
Wanna post a correction for this tab? Suggest correction