Oops, an error
Loading. Please wait.

Pain Redefined Tab

version 2
version 2

Intro

Whole song

Interactive

588 views 1 this week
no commentswrite comment
1 2 3 4 5
please rate
add to favorites
launch autoscroll
font size
0
reset
how to read this tab
guitar tuner
Autoscroll
slow
fast
+/-
esc
set tempo
stop
Help us to improve Ultimate-Guitar.com Take our survey!
×
Difficulty
intermediate
#----------------------------------PLEASE NOTE--------------------------------#
#This file is the author's own work and represents their interpretation of the#
#song. You may only use this file for private study, scholarship, or research.#
#-----------------------------------------------------------------------------#
#-- File created with Instab - http://www.pconline.com/~smcarey/instab.html --#
#-----------------------------------------------------------------------------#

Author/Artist: Disturbed
Title: Pain Redefined
Album: Ten Thousand Fists
Transcribed by: Aaron
Tune to drop Db

-|---------------------------------------|-----------------------|-----------|
-|---------------------------------------|-----------------------|-----------|
-|---------------------------------------|-----------------------|-----------|
-|-4-4-4------4-4-4------4-4-----4-4-----|4-4-4--5--4-4-4-4-4--7-|-4-4-4-----|
-|-4-4-4---7--4-4-4----5-4-4---0-4-4---1-|4-4-4--5--4-4-4-4-4--7-|-4-4-4---7-|
-|-4-4-4------4-4-4------4-4-----4-4-----|4-4-4--5--4-4-4-4-4--7-|-4-4-4-----|


-----------------------------|----------------------|-----------------------|
-----------------------------|----------------------|-----------------------|
-----------------------------|----------------------|-----------------------|
-4-4-4------4-4-----4-4------|-4-4-4--5-4-4-4-4-4--5|-----------------------|
-4-4-4----5-4-4---0-4-4----1-|-4-4-4--5-4-4-4-4-4--5|-----------------------|
-4-4-4------4-4-----4-4------|-4-4-4--5-4-4-4-4-4--5|-----------------------|

-|---------------------------------------|-----------------------|-----------|
-|---------------------------------------|-----------------------|-----------|
-|---------------------------------------|-----------------------|-----------|
-|-4-4-4------4-4-4------4-4-----4-4-----|4-4-4--5--4-4-4-4-4--7-|-4-4-4-----|
-|-4-4-4---7--4-4-4----5-4-4---0-4-4---1-|4-4-4--5--4-4-4-4-4--7-|-4-4-4---7-|
-|-4-4-4------4-4-4------4-4-----4-4-----|4-4-4--5--4-4-4-4-4--7-|-4-4-4-----|


-----------------------------|----------------------|-----------------------|
-----------------------------|----------------------|-----------------------|
-----------------------------|----------------------|-----------------------|
-4-4-4------4-4-----4-4------|-4-4-4--5-4-4-4-4-4--5|-----------------------|
-4-4-4----5-4-4---0-4-4----1-|-4-4-4--5-4-4-4-4-4--5|-----------------------|
-4-4-4------4-4-----4-4------|-4-4-4--5-4-4-4-4-4--5|-----------------------|
Suggest correction
What's this?
You can suggest a correction to this tab. Community and Mods will review your correction and vote to approve or reject it.
comments
We did not receive enough feedback on this tab! Please rate:
print report bad tab
1 2 3 4 5
guest
You may want to rate the tab now too:
select rating
Please do not post tabs as comments. Select "correction" instead!