Oops, an error
Loading. Please wait.

Perfect Insanity Bass Tab

version 1
version 1

Whole song

7,179 views 9 this week
7 commentsread comments
1 2 3 4 5
worth learning
x 7
add to favorites
launch autoscroll
font size
0
reset
guitar tuner
Tab Pro tools
  • play this tab
  • loop segment
  • change instrument
  • show fretboard
  • metronome
×
Best way to learn
"Perfect Insanity"
Autoscroll
slow
fast
+/-
esc
set tempo
stop
Difficulty
intermediate
Disturbed - Perfect Insanity

Hi!

This is my first tab, so sorry for any mistakes.. ;)


Intro

G------------------------------------|
D------------------------------------|
A------------------------------------|    x4
E-00000001-0000003-0000001-0000000---|

Verse 1

G-----------------------------------------|
D-----------------------------------------|
A-----------------------------------------|    x2
E-0000-001-000-003-000-001-003-000--------|


G------------------------------------|
D------------------------------------|
A------------------------------------|    x2
E-00000001-0000003-0000001-003-000---|


G-------------------------------------------------|
D-------------------------------------------------|
A-------------------------------------------------|
E-2420-00000000000-2420-00000000000-2420-00000000-|

Chorus

G------------------------------------|
D------------------------------------|
A------------------------------------|    x4
E-00000001-0000003-0000001-0000000---|

Verse 2

G-----------------------------------------|
D-----------------------------------------|
A-----------------------------------------|    x2
E-0000-001-000-003-000-001-003-000--------|


G------------------------------------|
D------------------------------------|
A------------------------------------|    x2
E-00000001-0000003-0000001-003-000---|


G-------------------------------------------------|
D-------------------------------------------------|
A-------------------------------------------------|
E-2420-00000000000-2420-00000000000-2420-00000000-|

Chorus

G------------------------------------|
D------------------------------------|
A------------------------------------|    x4
E-00000001-0000003-0000001-0000000---|

G------------------------------------|
D------------------------------------|
A------------------------------------|
E-----0------------0-----------------|

Bass Solo ( 2:32 - There can be heard quietly playing bass but I must improvise :P )
G---------------------------------------|
D---------1-1---------------------------|
A-----0-1----3210--------0-1-0-1--------|    x4
E-0-3------------3-1--0-3---------------|

End

G------------------------------------|
D------------------------------------|
A------------------------------------|     x9
E-00000001-000000000000001-0000000---|

G--------------------------------------|
D--------------------------------------|
A--------------------------------------|
E-00000001-000000000000001-0000000-000-|


HAVE FUN !!!

If you've got any questions or suggestions about this tab -  write!!! :P

b.laska4@chello.pl or basista91@o2.pl

SEE YA!!! :)
comments
print report bad tab
7 comments total. Showing first comments.
0 reply
xXDisturbedThor wrote on June 2 2008, 01:34 pm

The Tad is competely wrong. better luck next time buddy
Im gonna tab it :) just to proove im not all talk
xXDisturbedThor-

-1 reply
mr. 656 wrote on July 30 2008, 01:25 pm

^thank you

0 reply
MetalGorilla wrote on August 20 2008, 11:23 pm

did u.. try playing while listening to the song? F-

I want to post or [tab]
guest
You may want to rate the tab now too:
select rating
Please do not post tabs as comments. Select "correction" instead!