Oops, an error
Loading. Please wait.

Perfect Insanity Tab

version 1
version 1

Intro

Whole song

1,442 views 3 this week
no commentswrite comment
1 2 3 4 5
accurate
x 4
add to favorites
launch autoscroll
font size
0
reset
how to read this tab
guitar tuner
Tab Pro tools
  • play this tab
  • loop segment
  • change instrument
  • show fretboard
  • metronome
Autoscroll
slow
fast
+/-
esc
set tempo
stop
Contributor
Difficulty
Tuning
novice
D# G# C# F# A# D#
___Disturbed: Perfect Insanity___
___Album: Indestructible_________
___Tabbed By: Tyler Breske_______ 
___Email: Tybreske@hotmail.com___
___Tuning: Half-Step Down________
___With Lyrics___________________

Slide Up:   \
Slide Down: /
Hammer on:  H
Pull Off:   P
Palm Mute:  .
Bend:       ~
Harmonics:  *

intro
0:04
eb|-------------------------|
Bb|-------------------------|
Gb|-------------------------|
Db|-12/---------------------|
Ab|-12/---------------------|
Eb|-12/---------------------|


0:05
eb|-------------------------------------------------------------------|
Bb|-------------------------------------------------------------------|
Gb|-------------------------------------------------------------------|
Db|-222---------------------------------------------------------------|
Ab|-222-----5h7-----3/2-------5\7-----4/3-------5h7-----3/2-----------|
Eb|-000--0-------0--3/2--0-0-------0--4/3--0-0-------0--3/2--00000000-|
                                                            ........

0:11
eb|-------------------------------------------------------------------|
Bb|-------------------------------------------------------------------|
Gb|-------------------------------------------------------------------|
Db|-222---------------------------------------------------------------|
Ab|-222-----5h7-----3/2-------5\7-----4/3-------5h7-----3/2-----------|
Eb|-000--0-------0--3/2--0-0-------0--4/3--0-0-------0--3/2--2\3\4\5\-|
                                                            * * * *

                                                  A, A, A, A, A, Ow
0:16
eb|-------------------------------------------------------------------|
Bb|-------------------------------------------------------------------|
Gb|-------------------------------------------------------------------|
Db|-222---------------------------------------------------------------|
Ab|-222-----5h7-----3/2-------5\7-----4/3-------5h7-----3/2-----------|
Eb|-000--0-------0--3/2--0-0-------0--4/3--0-0-------0--3/2--00000000-|
                                                            ........

0:22
eb|------------------------------------------------------------------------|
Bb|------------------------------------------------------------------------|
Gb|------------------------------------------------------------------------|
Db|-222--------------------------------------------------------------------|
Ab|-222-----5h7-----3/2-------5\7-----4/3-------5h7-----3/2----------------|
Eb|-000--0-------0--3/2--0-0-------0--4/3--0-0-------0--3/2--00-000-00-000-|
                                                            .. ... .. ...

0:28
eb|-----------------------------------|
Bb|-----------------------------------|
Gb|-----------------------------------|
Db|-2-------4-------------------------|
Ab|-2-------4-------4-------2----5----|
Eb|-0-00-00---00-00-4-00-00-2-00-5-00-|
     .. ..   .. ..   .. ..   ..   ..
Come inside and be afraid,
Of this impressive mess I’ve made...


0:33
eb|-----------------------------------|
Bb|-----------------------------------|
Gb|-----------------------------------|
Db|-2-------4-------------------------|
Ab|-2-------4-------4-------2----5----|
Eb|-0-00-00---00-00-4-00-00-2-00-5-00-|
     .. ..   .. ..   .. ..   ..   ..
If you take a look now you will find...

0:39
eb|------------------------------------------------|
Bb|------------------------------------------------|
Gb|------------------------------------------------|
Db|-2----------4-----------------------------------|
Ab|-2----------4----------4----------2----5--------|
Eb|-0-00000000---00000000-4-00000000-2-00-5--333-2-|
     ........   ........   ........   ..    ... .
I have thrown away my vice,
Done away with paradise
See what’s going on inside my mind...

0:50
eb|---------------------------------------------------------|
Bb|---------------------------------------------------------|
Gb|---------------------------------------------------------|
Db|---------------------------------------------------------|
Ab|-----------666-5------------555-3------------------------|
Eb|-22222222--666-5--22222222--555-3--22222222--5~5~5~5~5~4-|
   ........         ........         ........  
Please let me out!  Please let me out!     Please let me!



comments
print report bad tab
I want to post or [tab]
guest
You may want to rate the tab now too:
select rating
Please do not post tabs as comments. Select "correction" instead!