Oops, an error
Loading. Please wait.

Perfect Insanity Tab

version 1
version 1

Intro

Whole song

5,777 views 3 this week
4 commentsread comments
1 2 3 4 5
worth learning
x 2
add to favorites
launch autoscroll
font size
0
reset
how to read this tab
guitar tuner
Tab Pro tools
  • play this tab
  • loop segment
  • change instrument
  • show fretboard
  • metronome
Autoscroll
slow
fast
+/-
esc
set tempo
stop
Contributor
-------------------------------------------------------------------------------
                             Perfect Insanity - Disturbed
-------------------------------------------------------------------------------
Tabbed by: Michael Capanna      
Email: SpyderPB6@hotmail.com

Tuning:C#G#C#F#A#D#

Here we have one of the coolest songs to play by Disturbed. Playing this song is 
a blast, even if it isn't your favorite of Disturbed songs, it is hot. I tabbed
most of it out through videos on the internet and through video I have of seeing 
them live. It should be pretty much dead on. The solo is pretty much right from 
the Indestructionals. 


This is the correct tuning for the song. (The solo is tabbed in D# which doesn't 
much matter becuase you don't hit that string at all, while the rest of the song is
C#)


As always, please dont copy this and say it is yours.

Check out my tabs for The Night, Indestuctible and Criminal - all are 5 star tabs
and pretty damn close to being dead on.

Please rate this and comment.

Also feel free to email me with any questions at

SpyderPB6@hotmail.com


Thanks, Have fun.

PS....SURELY I screwed up somewhere on here, prolly a stupid mistake so email me
when you find it. It has to be there, becuase all of my past tabs have had one.



* = Palm mutes
+ = Harmonics

Intro

D#|------------------------------------------------------------------------------|
A#|------------------------------------------------------------------------------|
F#|------------------------------------------------------------------------------|
C#|------------------------------------------------------------------------------|
G#|-------//////////////---------------------------------------------------------|
C#|-Intro-Slide-////////---------------------------------------------------------|

D#|------------------------------------------------------------------------------|
A#|------------------------------------------------------------------------------|
F#|------------------------------------------------------------------------------|
C#|------------------------------------------------------------------------------|
G#|-2-2--5/7--3/2-----2/5--5/2-----5/7--3/2--------------------------------------|
C#|-2-2-------3/2-0-0------5/2-0-0------3/2-2-2-2-2-2-2--------------------------|
                  * *          * *          * * * * * *

D#|------------------------------------------------------------------------------|
A#|------------------------------------------------------------------------------|
F#|------------------------------------------------------------------------------|
C#|------------------------------------------------------------------------------|
G#|-2-2-2--5/7--3/2-----2/5--5/2-----5/7--3/2------------------------------------|
C#|-2-2-2-------3/2-0-0------5/2-0-0------3/2-2-2-3-4-5-6-6----------------------|
                    * *          * *          +++++++++++++

D#|------------------------------------------------------------------------------|
A#|------------------------------------------------------------------------------|
F#|------------------------------------------------------------------------------|
C#|------------------------------------------------------------------------------|
G#|-2-2-2--5/7--3/2-----2/5--5/2-----5/7--3/2------------------------------------|
C#|-2-2-2-------3/2-0-0------5/2-0-0------3/2-2-2-2-2-2-2------------------------|
                    * *          * *          * * * * * *

D#|------------------------------------------------------------------------------|
A#|------------------------------------------------------------------------------|
F#|------------------------------------------------------------------------------|
C#|------------------------------------------------------------------------------|
G#|-2-2--5/7--3/2-----2/5--5/2-----5/7--3/2--------------------------------------|
C#|-2-2-------3/2-0-0------5/2-0-0------3/2--------------------------------------|
                  * *          * *          

Verse

D#|------------------------------------------------------------------------------|
A#|------------------------------------------------------------------------------|
F#|------------------------------------------------------------------------------|
C#|--------------5---------------------------------------------------------------|
G#|-2------------3------------4------------2-------5-----------------------------|
C#|-2--2-2--2-2-----2-2--2-2--4--2-2--2-2--2--2-2--5--2-2------------------------|
       * *  * *     * *  * *     * *  * *     * *     * *

D#|------------------------------------------------------------------------------|
A#|------------------------------------------------------------------------------|
F#|------------------------------------------------------------------------------|
C#|--------------5---------------------------------------------------------------|
G#|-2------------3-------------4-----------5-----7---5---------------------------|
C#|-2--2-2--2-2------2-2--2-2--4--2-2--2-2-5-2-2-7-2-5-2-------------------------|
       * *  * *      * *  * *     * *  * *   * *   *   *

D#|------------------------------------------------------------------------------|
A#|------------------------------------------------------------------------------|
F#|------------------------------------------------------------------------------|
C#|----------------5-------------------------------------------------------------|
G#|-2--------------3--------------4---------------2-------5----------------------|
C#|-2--2-2-2-2-2-2---2-2-2-2-2-2--4--2-2-2-2-2-2--2--2-2--5--2-2-----------------|
       * * * * * *   * * * * * *     * * * * * *     * *     * *

D#|------------------------------------------------------------------------------|
A#|------------------------------------------------------------------------------|
F#|------------------------------------------------------------------------------|
C#|----------------5-------------------------------------------------------------|
G#|-2--------------3---------------4--------------5-----7---5--------------------|
C#|-2-2-2-2-2-2-2-----2-2-2-2-2-2--4--2-2-2-2-2-2-5-2-2-7-2-5-2------------------|
      * * * * * *     * * * * * *     * * * * * *   * *   *   *

Pre Chorus

D#|------------------------------------------------------------------------------|
A#|------------------------------------------------------------------------------|
F#|------------------------------------------------------------------------------|
C#|-5-5-5-2---8-8-8-2---5-5-5-2--------------------------------------------------|
G#|-5-5-5-2---8-8-8-2---5-5-5-2--------------------------------------------------|
C#|-5-5-5-2---8-8-8-2---5-5-5-2---7/8-7/8-7/8-7/8--7/8-7-------------------------|


Chorus


D#|------------------------------------------------------------------------------|
A#|------------------------------------------------------------------------------|
F#|------------------------------------------------------------------------------|
C#|------------------------------------------------------------------------------|
G#|-2-2--5/7--3/2-----2/5--5/2-----5/7--3/2--------------------------------------|
C#|-2-2-------3/2-0-0------5/2-0-0------3/2-2-2-2-2-2-2--------------------------|
                  * *          * *          * * * * * *

D#|------------------------------------------------------------------------------|
A#|------------------------------------------------------------------------------|
F#|------------------------------------------------------------------------------|
C#|------------------------------------------------------------------------------|
G#|-2-2-2--5/7--3/2-----2/5--5/2-----5/7--3/2------------------------------------|
C#|-2-2-2-------3/2-0-0------5/2-0-0------3/2-2-2-3-4-5-6-6----------------------|
                    * *          * *          +++++++++++++

D#|------------------------------------------------------------------------------|
A#|------------------------------------------------------------------------------|
F#|------------------------------------------------------------------------------|
C#|------------------------------------------------------------------------------|
G#|-2-2-2--5/7--3/2-----2/5--5/2-----5/7--3/2------------------------------------|
C#|-2-2-2-------3/2-0-0------5/2-0-0------3/2-2-2-2-2-2-2------------------------|
                    * *          * *          * * * * * *

D#|------------------------------------------------------------------------------|
A#|------------------------------------------------------------------------------|
F#|------------------------------------------------------------------------------|
C#|------------------------------------------------------------------------------|
G#|-2-2--5/7--3/2-----2/5--5/2-----5/7--3/2---2----------------------------------|
C#|-2-2-------3/2-0-0------5/2-0-0------3/2---2----------------------------------|
                  * *          * *          

Verse

D#|------------------------------------------------------------------------------|
A#|------------------------------------------------------------------------------|
F#|------------------------------------------------------------------------------|
C#|--------------5---------------------------------------------------------------|
G#|-2------------3------------4------------2-------5-----------------------------|
C#|-2--2-2--2-2-----2-2--2-2--4--2-2--2-2--2--2-2--5--2-2------------------------|
       * *  * *     * *  * *     * *  * *     * *     * *

D#|------------------------------------------------------------------------------|
A#|------------------------------------------------------------------------------|
F#|------------------------------------------------------------------------------|
C#|--------------5---------------------------------------------------------------|
G#|-2------------3-------------4-----------5-----7---5---------------------------|
C#|-2--2-2--2-2------2-2--2-2--4--2-2--2-2-5-2-2-7-2-5-2-------------------------|
       * *  * *      * *  * *     * *  * *   * *   *   *

D#|------------------------------------------------------------------------------|
A#|------------------------------------------------------------------------------|
F#|------------------------------------------------------------------------------|
C#|----------------5-------------------------------------------------------------|
G#|-2--------------3--------------4---------------2-------5----------------------|
C#|-2--2-2-2-2-2-2---2-2-2-2-2-2--4--2-2-2-2-2-2--2--2-2--5--2-2-----------------|
       * * * * * *   * * * * * *     * * * * * *     * *     * *

D#|------------------------------------------------------------------------------|
A#|------------------------------------------------------------------------------|
F#|------------------------------------------------------------------------------|
C#|----------------5-------------------------------------------------------------|
G#|-2--------------3---------------4--------------5-----7---5--------------------|
C#|-2-2-2-2-2-2-2-----2-2-2-2-2-2--4--2-2-2-2-2-2-5-2-2-7-2-5-2------------------|
      * * * * * *     * * * * * *     * * * * * *   * *   *   *


Pre Chorus

D#|------------------------------------------------------------------------------|
A#|------------------------------------------------------------------------------|
F#|------------------------------------------------------------------------------|
C#|-5-5-5-2---8-8-8-2---5-5-5-2--------------------------------------------------|
G#|-5-5-5-2---8-8-8-2---5-5-5-2--------------------------------------------------|
C#|-5-5-5-2---8-8-8-2---5-5-5-2---7/8-7/8-7/8-7/8--7/8-7-------------------------|


Chorus

D#|------------------------------------------------------------------------------|
A#|------------------------------------------------------------------------------|
F#|------------------------------------------------------------------------------|
C#|------------------------------------------------------------------------------|
G#|-2-2--5/7--3/2-----2/5--5/2-----5/7--3/2--------------------------------------|
C#|-2-2-------3/2-0-0------5/2-0-0------3/2-2-2-2-2-2-2--------------------------|
                  * *          * *          * * * * * *

D#|------------------------------------------------------------------------------|
A#|------------------------------------------------------------------------------|
F#|------------------------------------------------------------------------------|
C#|------------------------------------------------------------------------------|
G#|-2-2-2--5/7--3/2-----2/5--5/2-----5/7--3/2------------------------------------|
C#|-2-2-2-------3/2-0-0------5/2-0-0------3/2-2-2-3-4-5-6-6----------------------|
                    * *          * *          +++++++++++++

D#|------------------------------------------------------------------------------|
A#|------------------------------------------------------------------------------|
F#|------------------------------------------------------------------------------|
C#|------------------------------------------------------------------------------|
G#|-2-2-2--5/7--3/2-----2/5--5/2-----5/7--3/2------------------------------------|
C#|-2-2-2-------3/2-0-0------5/2-0-0------3/2-2-2-2-2-2-2------------------------|
                    * *          * *          * * * * * *

D#|-------------------------------------------0-------0--------------------------|
A#|-------------------------------------------0-------0--------------------------|
F#|-------------------------------------------0-------0--------------------------|
C#|-------------------------------------------2-------2--------------------------|
G#|-2-2--5/7--3/2-----2/5--5/2-----5/7--3/2---2-------2--------------------------|
C#|-2-2-------3/2-0-0------5/2-0-0------3/2---2-------2--------------------------|
                  * *          * *          


Interlude (Per Deep Rock Live Video)

D#|----------------7-----------------7-------------------------------------------|
A#|--------7-8-5~--7---------7-8-5~--7-------------------------------------------|
F#|------7---------7-------7---------7-------------------------------------------|
C#|--0-7-----------7---0-7-----------7-------------------------------------------|
G#|------------------------------------------------------------------------------|
C#|------------------------------------------------------------------------------|


Solo (Pretty much as per Indestructionals)

D#|--t15p10h12p10h12p10-t15p10h12p10h12p10-t15p10h12p10h12p10-t15p10h12p10h12p10|
A#|------------------------------------------------------------------------------|
F#|------------------------------------------------------------------------------|
C#|------------------------------------------------------------------------------|
G#|------------------------------------------------------------------------------|
C#|------------------------------------------------------------------------------|

D#|--t15p10h12p10t17p10-t15p9h12p9h12p9-t15p9h12p9h12p9-t15p9h12p9h12p9----------|
A#|------------------------------------------------------------------------------|
F#|------------------------------------------------------------------------------|
C#|------------------------------------------------------------------------------|
G#|------------------------------------------------------------------------------|
C#|------------------------------------------------------------------------------|

D#|--t15p9h12p9h12p9--t15p9h12p9t17p9-t12p7h8p7h8-t15p7h8p7h8-t12p7h8p7h8--------|
A#|------------------------------------------------------------------------------|
F#|------------------------------------------------------------------------------|
C#|------------------------------------------------------------------------------|
G#|------------------------------------------------------------------------------|
C#|------------------------------------------------------------------------------|

D#|--t15p7h8p7h8t12p7h8----t5p4p3-t6p4p3h4p3-t6p4p3t7p4p3-t6p4p3h4p3-------------|
A#|------------------------------------------------------------------------------|
F#|------------------------------------------------------------------------------|
C#|------------------------------------------------------------------------------|
G#|------------------------------------------------------------------------------|
C#|------------------------------------------------------------------------------|

D#|---t6p4p3t7p4p3-t6p4p3h4p3~~~~~-----------------------------------------------|
A#|------------------------------------------------------------------------------|
F#|------------------------------------------------------------------------------|
C#|------------------------------------------------------------------------------|
G#|------------------------------------------------------------------------------|
C#|------------------------------------------------------------------------------|


Outro


D#|------------------------------------------------------------------------------|
A#|------------------------------------------------------------------------------|
F#|---------------------7----------------------7---------------------------------|
C#|---------------------5----------------------5----------------------7----------|
G#|-2-2-0-2-3/2------------2-2-0-2-3/2------------2-2-0-2-3/2---------5----------|
C#|-2-2-0-2-3/2--0-0-0-----2-2-0-2-3/2--0-0-0-----2-2-0-2-3/2--0-0-0-------------|
                 * * *                  * * *                  * * *

D#|------------------------------------------------------------------------------|
A#|------------------------------------------------------------------------------|
F#|---------------------7----------------------7---------------------------------|
C#|---------------------5----------------------5----------------------7----------|
G#|-2-2-0-2-3/2------------2-2-0-2-3/2------------2-2-0-2-3/2---------5----------|
C#|-2-2-0-2-3/2--0-0-0-----2-2-0-2-3/2--0-0-0-----2-2-0-2-3/2--0-0-0-------------|
                 * * *                  * * *                  * * *

D#|------------------------------------------------------------------------------|
A#|------------------------------------------------------------------------------|
F#|-----------------------7------------------------------------------------------|
C#|-----------------------5------------------------------------------------------|
G#|---2-2-0-2-3/2------------2-2-0-2-3/2-----------------------------------------|
C#|---2-2-0-2-3/2--0-0-0-----2-2-0-2-3/2--0-0-0--pick/slide/////-----------------|
                   * * *                  * * *

D#|------------------------------------------------------------------------------|
A#|------------------------------------------------------------------------------|
F#|------------------------------------------------------------------------------|
C#|------------------------------------------------------------------------------|
G#|---2-----------3/2----------2-----------3/2----------2-----------3/2----------|
C#|---2-0-0-0-000-3/2-0-0--0-0-2-0-0-0-000-3/2-0-0--0-0-2-0-0-0-000-3/2--0-0--0-0|
        * * * ***     * *  * *   * * * ***     * *  * *   * * * ***      * *  * *

D#|------------------------------------------------------------------------------|
A#|------------------------------------------------------------------------------|
F#|------------------------------------------------------------------------------|
C#|------------------------------------------------------------------------------|
G#|---2-----------3/2----------2-----------3/2---2-2-2-----------3/2---2-2-2-----|
C#|---2-0-0-0-000-3/2-0-0--0-0-2-0-0-0-000-3/2-0-2-2-2-0-0-0-000-3/2-0-2-2-2-----|
        * * * ***     * *  * *   * * * ***     *       * * * ***

D#|------------------------------------------------------------------------------|
A#|------------------------------------------------------------------------------|
F#|------------------------------------------------------------------------------|
C#|------------------------------------------------------------------------------|
G#|-------------3/2---2-2-2-----------3/2---2-2-222------------------------------|
C#|---0-0-0-000-3/2-0-2-2-2-0-0-0-000-3/2-0-2-2-222---THE-END-AHH-AHH-AHH-OWWW---|
      * * * ***     *       * * * ***   


| /  slide up
| \  slide down
| h  hammer-on
| p  pull-off
| ~  vibrato
| +  harmonic
| x  Mute note
===============================================================================
comments
We did not receive enough feedback on this tab! Please rate:
print report bad tab
1 2 3 4 5
4 comments total. Showing first comments.
+1 reply
Operator (CA) wrote on May 15 2009, 11:44 am

seems correct but tuning is standard half stef down.

+1 reply
SpyderPB6 wrote on August 10 2009, 07:11 pm

I got my tuning from the Disturbed video that came with indestructible on the board with the songs list is says C#. Ill double check it though just to make sure.

Thanks!

+1 reply
staygold wrote on August 28 2009, 02:33 am

sounds pretty much exact, nice tab

I want to post or [tab]
guest
You may want to rate the tab now too:
select rating
Please do not post tabs as comments. Select "correction" instead!