Oops, an error
Loading. Please wait.

Perfect Insanity Tab

version 3
version 3
51,074 views 39 this week
31 commentsread comments
1 2 3 4 5
excellent!
x 37
add to favorites
launch autoscroll
font size
0
reset
how to read this tab
guitar tuner
Autoscroll
slow
fast
+/-
esc
set tempo
stop
Help us to improve Ultimate-Guitar.com Take our survey!
×
Author
Difficulty
intermediate
This is the brand-spankin' new version of Perfect Insanity that was released on March
 For the most part i think this tab is correct.  I'm still not too sure about the
notes in the verses, but i have a rough idea how it goes.  Hopefully people will use 
tab as a foundation and build off of it.  Enjoy!

Tuning: Eb Ab Db Gb Bb Eb aka (D# G# C# F# A# D#)

Intro:

Eb|-----------------------|
Bb|-----------------------|
Gb|-----------------------|
Db|-----------------------|
Ab|---12\ slide down -----|
Eb|---12\ slide down -----|

Intro 1:
Eb|--------------------------------------------------------------------------|
Bb|--------------------------------------------------------------------------|
Gb|--------------------------------------------------------------------------|
Db|--2-2-2-------------------------------------------------------------------|
Ab|--2-2-2-----5h7-----3-2------3/5----5-2-------5h7----3-2------------------|
Eb|--0-0-0--0-------0--1-0--0-0-----0--3-0--0-0------0--1-0--0-0-0-0-0-0-0-0-|
PM          .       .       . .     .       . .      .       . . . . . . . .

When David does his "ow ow ow" sound, do this sliding harmonic
Intro 2:
Eb|-------------------------|
Bb|-------------------------|
Gb|-------------------------|
Db|-------------------------|
Ab|-------------------------|
Db|--<2>-/-<3>-/-<4>-/-<5>--|


Intro 3: This riff just has a different ending.  Notice the quick triplet palm mutes at 
end
Eb|------------------------------------------------------------------------|
Bb|------------------------------------------------------------------------|
Gb|------------------------------------------------------------------------|
Db|--2-2-2-----------------------------------------------------------------|
Ab|--2-2-2-----5h7-----3-2------3/5----5-2-------5h7----3-2----------------|
Eb|--0-0-0--0-------0--1-0--0-0-----0--3-0--0-0------0--1-0--000-00-000-0--|
PM          .       .       . .     .       . .      .       ... .. ... .

Verse 1:

Eb|----------------------------------------------------------------|
Bb|----------------------------------------------------------------|
Gb|----------------------------------------------------------------|
Db|-2--------------5-----------------------------------------------|
Ab|-2--------------3--------------4---------------3-------5--------|
Db|-0--0-0-0---0-0---0-0-0---0-0--2--0-0-0---0-0--1--0-0--3--0-0---|
PM     . . .   . .   . . .   . .     . . .   . .     . .     . .


Verse 1 continued:

Eb|----------------------------------------------------------------|
Bb|----------------------------------------------------------------|
Gb|----------------------------------------------------------------|
Db|-2--------------5-----------------------------------------------|
Ab|-2--------------3--------------4---------------5-------7--------|
Db|-0--0-0-0---0-0---0-0-0---0-0--2--0-0-0---0-0--3--0-0--5--0-0---|
PM     . . .   . .   . . .   . .     . . .   . .     . .     . .


Verse 2:

Eb|----------------------------------------------------------------|
Bb|----------------------------------------------------------------|
Gb|----------------------------------------------------------------|
Db|-2--------------5-----------------------------------------------|
Ab|-2--------------3--------------4---------------3-------5--------|
Db|-0--0-0-0-0-0-0---0-0-0-0-0-0--2--0-0-0-0-0-0--1--0-0--3--0-0---|
PM     . . . . . .   . . . . . .     . . . . . .     . .     . .


Verse 2 continued:

Eb|----------------------------------------------------------------|
Bb|----------------------------------------------------------------|
Gb|----------------------------------------------------------------|
Db|-2--------------5-----------------------------------------------|
Ab|-2--------------3--------------4---------------5-------7--------|
Db|-0--0-0-0-0-0-0---0-0-0-0-0-0--2--0-0-0-0-0-0--3--0-0--5--0-0---|
PM     . . . . . .   . . . . . .     . . . . . .     . .     . .

This is really the only part of the song that im not too sure about cause it's kinda
to hear the notes properly.  But heres a really rough idea of one of the set of notes.
Verse 2 Harmonized part:

Eb|----------15-12----15-12-------------14-10----14-10----14-10----|
Bb|-10-12-14-------14-------10-12-14-10-------12-------12----------|
Gb|----------------------------------------------------------------|
Db|----------------------------------------------------------------|
Ab|----------------------------------------------------------------|
Db|----------------------------------------------------------------|

Eb|-12-8----12-8----10-8-------------------------------------------|
Bb|------10------10------10-8--------------------------------------|
Gb|----------------------------------------------------------------|
Db|----------------------------------------------------------------|
Ab|----------------------------------------------------------------|
Db|----------------------------------------------------------------|

Bridge to Chorus:

Eb|----------------------------------------------------------------|
Bb|----------------------------------------------------------------|
Gb|----------------------------------------------------------------|
Db|------------------------------3-3-3-----------------------------|
Ab|-5-5-5-2----------------------1-1-1-2-------------------5-5-5-2-|
Db|-3-3-3-0---0-0-0-0-0-0-0-0-0--------0--0-0-0-0-0-0-0-0--3-3-3-0-|
PM            . . . . . . . . .           . . . . . . . .

Eb|-------------------------------------------|
Bb|-------------------------------------------|
Gb|-------------------------------------------|
Db|-------------------------------------------|
Ab|-------------------------------------------|
Db|-0-0-0-0-0-0-0-0---5b-5b-5b-5b-------------|
PM  . . . . . . . .

Go back to the intro and repeat everything

Bridge:

Eb|-------------------------------------------|
Bb|-------------------------------------------|
Gb|-------------------------------------------|
Db|--2~-------------x-x--------2~-------------|
Ab|--2~-------------x-x--------2~-------------|
Db|--0~-------------x-x--------0~-------------|

Eb|--0-2-3-0~------------2~-------------------|
Bb|-------------------------------------------|
Gb|-------------------------------------------|
Db|-------------------------------------------|
Ab|-------------------------------------------|
Db|-------------------------------------------|

Solo: All tapping.  The very last measure may be off by a tad

          Repeat x4
Eb|-19p15p12h15p12h15p12h15p12-|-19p15p12h15p12h15p12h20p15p12-|
Bb|----------------------------|-------------------------------|
Gb|----------------------------|-------------------------------|

          Repeat x4
Eb|-15p12p9h12p9h12p9h12p9-|-15p12p9h12p9h12p9h20p12p9-----|
Bb|------------------------|-------------------------------|
Gb|------------------------|-------------------------------|

          Repeat x2
Eb|-15p6p5h6p5h6p5h6p5-12p6p5h6p5h6p5h6p5-|-12p6p5h6p5h6p5h15p6p5h6p5h6p5-|
Bb|---------------------------------------|-------------------------------|
Gb|---------------------------------------|-------------------------------|

          Repeat x2
Eb|-6p4p3h4p3h4p3-6p4p3h4p3h4p3-6p4p3-6p4p3-6p4p3-6p4p3-6p4p3-3h4h6-6p4p3~-|
Bb|---------------------------------------|--------------------------------|
Gb|---------------------------------------|--------------------------------|


Eb|----------------------------------------------|
Bb|-----------------------12\slide down----------|
Gb|-----------------------12\slide down----------|
Db|-2-----7-9------------------------------------|
Ab|-2-----5-7---3-2------------------------------|
Db|-0-0-0-----0-1-0-0-0-0------------------------|
PM    . .     .     . . .


Ending Riff

Eb|--------------------------------------------|
Bb|--------------------------------------------|
Gb|--------------------------------------------|
Db|-2------------------------------------------|
Ab|-2-----------3-2----------------------------|
Db|-0-0-0-000-0-1-0-0-0-0-0-0-0----------------|
PM    . . ... .     . . . . . .

Eb|---------------------------------------------|
Bb|---------------------------------------------|
Gb|---------------------------------------------|
Db|-2-2-2---------------------------------------|
Ab|-2-2-2---------------------------------------|
Db|-0-0-0---------------------------------------|
Suggest correction
What's this?
You can suggest a correction to this tab. Community and Mods will review your correction and vote to approve or reject it.
comments
print report bad tab
31 comments total. Showing first comments. show 1 bad comment
+5 reply
Operator (CA) 1,121 wrote on March 11 2008, 06:38 pm

Awsome man, awsome
5*

+5 reply
Your41Plague12 724 wrote on March 11 2008, 07:07 pm

You're the man! 5*

guest
You may want to rate the tab now too:
select rating
Please do not post tabs as comments. Select "correction" instead!