Oops, an error
Loading. Please wait.

Perfect Insanity Tab

version 4
version 4
4,228 views 1 this week
6 commentsread comments
1 2 3 4 5
accurate
x 3
add to favorites
launch autoscroll
font size
0
reset
how to read this tab
guitar tuner
Autoscroll
slow
fast
+/-
esc
set tempo
stop
Help us to improve Ultimate-Guitar.com Take our survey!
×
Author
Difficulty
intermediate
This is the New version of P.I off of the new album Indestructible.
Most is right i think.

Tuning: d. A. d. G. C F
Legend:
[.] = PM (Palm Mute)
N.h = Natural Harmonic
/ = Slide
^ = Bend
Intro:

Begin with a Pickslide down the fredboard. Then into this:

|--------------------------------------------------------------------------|
|--------------------------------------------------------------------------|
|--------------------------------------------------------------------------|
|--0-0-0-------------1-0-------------3-0--------------1-0------------------|
|--0-0-0-----3h5-----1-0--------3----3-0-------3h5----1-0------------------|
|--0-0-0--0-------0--1-0--0-0-/7--0--3-0--0-0------0--1-0--0-0-0-0-0-0-0-0-|
          .       .       . .     .       . .      .       . . . . . . . .

|--------------------------------------------------------------------------|
|--------------------------------------------------------------------------|
|--------------------------------------------------------------------------|
|--0-0-0-------------1-0-------------3-0--------------1-0------------------|
|--0-0-0-----3h5-----1-0--------3----3-0-------3h5----1-0------------------|
|--0-0-0--0-------0--1-0--0-0-/7--0--3-0--0-0------0--1-0--/1/2/3/4/4/5/5/5|
          .       .       . .     .       . .      .       N.h------------

|--------------------------------------------------------------------------|
|--------------------------------------------------------------------------|
|--------------------------------------------------------------------------|
|--0-0-0-------------1-0-------------3-0--------------1-0------------------|
|--0-0-0-----3h5-----1-0--------3----3-0-------3h5----1-0------------------|
|--0-0-0--0-------0--1-0--0-0-/7--0--3-0--0-0------0--1-0--0-0-0-0-0-0-0-0-|
          .       .       . .     .       . .      .       . . . . . . . .

|--------------------------------------------------------------------------|
|--------------------------------------------------------------------------|
|--------------------------------------------------------------------------|
|--0-0-0-------------1-0-------------3-0--------------1-0------------------|
|--0-0-0-----3h5-----1-0--------3----3-0-------3h5----1-0------------------|
|--0-0-0--0-------0--1-0--0-0-/7--0--3-0--0-0------0--1-0--0-000-0-0-000---|
          .       .       . .     .       . .      .       . ... . . ...

Verse:

|----------------------------------------------------------------|
|----------------------------------------------------------------|
|----------------------------------------------------------------|
|-0--------------------------------------------------------------|
|-0--------------8--------------2---------------1-------3--------|
|-0--0-0-0---0-0-8-0-0-0---0-0--2--0-0-0---0-0--1--0-0--3--0-0---|
     . . .   . .   . . .   . .     . . .   . .     . .     . .

|-------------------------------------------------------------|
|-------------------------------------------------------------|
|-------------------------------------------------------------|
|-0----------------------------------------------------------3|
|-0--------------8--------------2---------------3-------5----3|
|-0--0-0-0---0-0-8-0-0-0---0-0--2--0-0-0---0-0--3--0-0--5--0-3|
     . . .   . .   . . .   . .     . . .   . .     . .     . 

Verse Part 2: (Guitar 1)

|----------------------------------------------------------------|
|----------------------------------------------------------------|
|----------------------------------------------------------------|
|-0--------------------------------------------------------------|
|-0--------------8--------------2---------------1-------3--------|
|-0--0-0-0-0-0-0-8-0-0-0-0-0-0--2--0-0-0-0-0-0--1--0-0--3--0-0---|
     . . . . . .   . . . . . .     . . . . . .     . .     . .

|-------------------------------------------------------------|
|-------------------------------------------------------------|
|-------------------------------------------------------------|
|-0----------------------------------------------------------8|
|-0--------------8--------------2---------------3-------5----8|
|-0--0-0-0-0-0-0-8-0-0-0-0-0-0--2--0-0-0-0-0-0--3--0-0--5--0-8|
     . . . . . .   . . . . . .     . . . . . .     . .     . .

(Guitar 2) Timing isn't shown right but should be easy to figure out.

|-----13-17-13------------------13-15--------------------------------|
|---15--------15---18-15------15------15------15-17-18-15---17-15----|
|-14------------14------14--14----------14--14-----------14------14--|
|-------------------------15--------------15-------------------------|
|--------------------------------------------------------------------|
|--------------------------------------------------------------------|

|-----13-17-13------------------13-15--------------------------------|
|---15--------15---18-15------15------15------15-17-18-15---17-15-17-|
|-14------------14------14--14----------14--14-----------14----------|
|-------------------------15--------------15-------------------------|
|--------------------------------------------------------------------|
|--------------------------------------------------------------------|

(Guitar 3) Harmony

|-----17-20-17------------------17-18--------------------------------|
|---18--------18---22-18------18------18------18-20-22-18---22-20----|
|-17------------17------17--17----------17--17-----------17------17--|
|-------------------------19--------------19-------------------------|
|--------------------------------------------------------------------|
|--------------------------------------------------------------------|

|-----17-20-17------------------17-18--------------------------------|
|---18--------18---22-18------18------18------18-20-22-18---22-20-22-|
|-17------------17------17--17----------17--17-----------17----------|
|-------------------------19--------------19-------------------------|
|--------------------------------------------------------------------|
|--------------------------------------------------------------------|

Bridge into chorus: (Guitar 1)

|----------------------------------------------------------------|
|----------------------------------------------------------------|
|----------------------------------------------------------------|
|----------------------------------------------------------------|
|-3-3-3-0----------------------6-6-6-0-------------------3-3-3-0-|
|-3-3-3-0---0-0-0-0-0-0-0-0-0--6-6-6-0--0-0-0-0-0-0-0-0--3-3-3-0-|
            . . . . . . . . .           . . . . . . . .

|-------------------------------------------|
|-------------------------------------------|
|-------------------------------------------|
|-------------------------------------------|
|-------------------------------------------|
|-0-0-0-0-0-0-0-0---5/6-5/6-5/6-5/6-5/6-5---|
  . . . . . . . .

(Guitar 2)

|----------------------------------------------------------------|
|----------------------------------------------------------------|
|----------------------------------------------------------------|
|-15-15-15-12/---------------------------------------------------|
|----------------------------------------------------------------|
|----------------------------------------------------------------|

(Guitar 3)
|----------------------------------------------------------------|
|----------------------------------------------------------------|
|----------------------------------------------------------------|
|-19-19-19-15/---------------------------------------------------|
|----------------------------------------------------------------|
|----------------------------------------------------------------|


Chorus 1: 

Play Intro riff exactly the same except on last time do this:

|--------------------------------------------------------------------------|
|--------------------------------------------------------------------------|
|--------------------------------------------------------------------------|
|--0-0-0-------------1-0-------------3-0--------------1-0--------------0---|
|--0-0-0-----3h5-----1-0--------3----3-0-------3h5----1-0--------------0---|
|--0-0-0--0-------0--1-0--0-0-/7--0--3-0--0-0------0--1-0--0-0-0-0-0-0-0---|
          .       .       . .     .       . .      .       . . . . . .

Bridge: (again timing isn't shown)

|-------------------------------------------|
|--3~------------------------3~-------------|
|--2~------------------------2~-------------|
|--0~-------------x-x--------0~-------------|
|--0~-------------x-x--------0~-------------|
|--0~-------------x-x--------0~-------------|

|--------------------------------0----------|
|------5-6-------------------------1~-------|
|----7-----7~-------------------------------|
|--7----------------------------------------|
|-------------------------------------------|
|-------------------------------------------|

Solo: Sorry havent got the tapping yet, just the last incredibly fast bit.

|--------------------------------------------------------------------------|
|-----------9109----------------9109---------------9109--------------------|
|---131110-------1110--131110-------1110---131110------1110~~~~~(/w Whammy)|
|---------12---------12-------12--------12-------12------------------------|
|--------------------------------------------------------------------------|
|--------------------------------------------------------------------------|

Then this riff:

|--------------------------------------------------|
|---------------------------10~--------------------|
|---------------------------10~--------------------|
|-0-0-0--------------------------------------------|
|-0-0-0-----3-5---1-0------------------------------|
|-0-0-0-0-0-----0-1-0-0-0-0------------------------|
        . .     .     . . .


Then another pickslide, and finally:

|--------------------------------------------|
|--------------------------------------------|
|--------------------------------------------|
|-0------------------------------------------|   X 4
|-0-----------1-0----------------------------|
|-0-0-0-000-0-1-0-0-0-0-0-0-0----------------|
    . . ... .     . . . . . .

(Guitar 1)
|--------------------------------------------|
|--------------------------------------------|
|--------------------------------------------|
|-0-------------------0-0--------------------|   X 4
|-0-----------1-0-----0-0--------------------|
|-0-0-0-000-0-1-0-0-0-0-0--------------------|
    . . ... .     . .     

(Guitar 2) [In background]

|--------------------|
|--15~--14^^^^^^^----| [Listen to song for bend pattern]
|--------------------|
|--------------------|   
|--------------------|
|--------------------|
         

|---------------------------------------------|
|---------------------------------------------|
|---------------------------------------------|
|-0-0-0---------------------------------------|
|-0-0-0---------------------------------------|
|-0-0-0---------------------------------------|


Please comment!
Suggest correction
What's this?
You can suggest a correction to this tab. Community and Mods will review your correction and vote to approve or reject it.
comments
We did not receive enough feedback on this tab! Please rate:
print report bad tab
1 2 3 4 5
6 comments total. Showing first comments.
-1 reply
Cheapm0nkey 15 wrote on March 14 2008, 08:20 pm

Good Tab, hope you get the tapping parts soon.

+1 reply
DuffMcKagan7179 1,185 wrote on March 15 2008, 04:56 pm

Actually, this song is in Eb standard. Watch them play it live in Kuwait on YouTube; Dan isn't barreing any of the power chords.

+1 reply
metalgui 80 wrote on November 1 2008, 02:31 pm

great, but DuffMckagan7179 is right, this song is in Eb standard. the solo is a little bit weird but in general it's a great tab

guest
You may want to rate the tab now too:
select rating
Please do not post tabs as comments. Select "correction" instead!