Oops, an error
Loading. Please wait.

Perfect Insanity Tab

version 5
version 5
353 views 3 this week
no commentswrite comment
1 2 3 4 5
please rate
add to favorites
launch autoscroll
font size
0
reset
how to read this tab
guitar tuner
Tab Pro tools
  • play this tab
  • loop segment
  • change instrument
  • show fretboard
  • metronome
×
Best way to learn
"Perfect Insanity"
Autoscroll
slow
fast
+/-
esc
set tempo
stop
Contributor
Difficulty
Tuning
intermediate
C G C F A D
Name: Perfect Insanity
Artist: Disturbed
Tuning: Drop C     CGCFAD


^    Whammy note
~    let ring w/ vibrato
h    Hammer on
/    slide
.     palm mute



Ok, I made this for the people who don't want to use all those weird Eb tunings. 
Also, if you bring it down 2 frets, you can play this in drop D tuning too.









Intro:


For this part, you may also need to use your wah wah pedal with the pick slides

d|-------------------------------------------------------------------------------|
a|-------------------------------------------------------------------------------|
f|-------------------------------------------------------------------------------|
c|------pick slide down-/-----------then back up---\-----------------------------|
g|----------------------/--------------------------\-----------------------------|
c|----------------------/--------------------------\--------15/------------------|






|---------------------------------------------------------------------------------------|
|---------------------------------------------------------------------------------------|
|---------------------------------------------------------------------------------------|
|------------3-3-3------------4/3---------------6/3-------------4/3---------------------|
|------------3-3-3---6h8------4/3---------3h6---6/3-----6h8-----4/3------3-3-3-3--------|
|------------3-3-3------------4/3--3-3----------6/3-------------4/3----3-3-3-3-3--------|    4x
                                   . .                                 . . . . .






Verse:

                                                                         4th time
|----------------------------------------------------------------------|----------|
|----------------------------------------------------------------------|----------|
|----------------------------------------------------------------------|----------|
|--3----------------6-----------------5-----------------6-----8--------|----------|
|--3-----3------3-3-4----3-3------3-3-5---3-3-------3-3-6-3-3-8-6/-----|-6-6-6----|
|--3-3-3-3----3-3-3----3-3-3----3-3-3-5-3-3-3-----3-3-3-6-3-3-8-6/-----|-6-6-6----|4x 
  





|-------------------------------------------------------------------------|
|-------------------------------------------------------------------------|
|-------------------------------------------------------------------------|
|-------------------------------------------------------------------------|
|----------------------------8-8-8----------------------------6-6-6-3-----|
|--3-3-3-3-3-3-3-3-3-3-3-3-3-8-8-8--3-3-3-3-3-3-3-3-3-3-3-3-3-6-6-6-3-----|
   . . . . . . . . . . . . .        . . . . . . . . . . . . .




|------------------------------------|
|------------------------------------|
|------------------------------------|
|---9^^^^^----8----------------------|
|---9^^^^^----8----------------------|
|---9^^^^^----8----------------------|



Chorus:

Play intro riff 4x, then

|----------------------------------------|
|----------------------------------------|
|----------------------------------------|
|---3------------------------------------|
|---3------------------------------------|
|---3------------------------------------|



Verse

Chorus

Bridge:

Hold power chord on 3rd  fret through wispering part. 1st guitar plays

|---1---3---4-1~---------3~------------------------| (High d string)


For the solo, there's a tapping solo that I haven’t quite figured out. Its in the 
natural Eb minor key, if you want to make something of your own out of the pentatonic scale. 




The rest of the rhythm riffs are very similar, so just listen for where to change between them.





Behind Solo:

|-------------------------------------------------------|
|-------------------------------------------------------|
|-------------------------------------------------------|
|-------------------------------------------------------|    Repeat as needed
|--3-3-3---6h8---4/3------------------------------------|
|--3-3-3---------4/3--3-3-3-3-3-3-3-3-3-----------------|
                      . . . . . . . . .




Last Verse:

|---------------------------4--------------------|
|---------------------------4--------------------|
|------------------------------------------------|
|------------------------------------------------|     Repeat as needed
|--3-3-3---6h8---4/3-----------------------------|
|--3-3-3---------4/3----3------------------------|
                        .






Outro:

|-------------------------------------------------------|
|-------------------------------------------------------|
|-------------------------------------------------------|
|--3----------------------------------------------------|
|--3-------------4-3------------------------------------|
|--3--3-3-3-3-3--4-3--3-3-3-3-3-------------------------|
      . . . . .       . . . . .
comments
We did not receive enough feedback on this tab! Please rate:
print report bad tab
1 2 3 4 5
I want to post or [tab]
guest
You may want to rate the tab now too:
select rating
Please do not post tabs as comments. Select "correction" instead!