Oops, an error
Loading. Please wait.

Prayer Bass Tab

version 1
version 1

Whole song

Interactive

3,054 views 1 this week
2 commentsread comments
1 2 3 4 5
please rate
add to favorites
launch autoscroll
font size
0
reset
guitar tuner
Autoscroll
slow
fast
+/-
esc
set tempo
stop
Help us to improve Ultimate-Guitar.com Take our survey!
×
Author
Difficulty
intermediate
			     Prayer - Disturbed

Tabbed By : Insane Pyro
e-mail: jpickell@patmedia.net

Tuning: Drop D and G

This is normally played on a 5 string bass. The one note played on the 5th string is 
The top two strings aren't used. Listen to song for correct rythm.

G|-----------------------------------------------------|
D|-----------------------------------------------------|
G|-55555-55555-33333-66666-35-55555-55555-33333-6666-3-|
D|-----------------------------------------------------|x2

G|-----------------------------|
D|-----------------------------|
G|-----------------------------|
D|-55555-55555-77777-1010101010|

G|-------------------------------------------------|
D|-------------------------------------------------|
G|-------------------------------------------------|
D|-5/1-11111\6-5/1-11111\6-5/1-11111\6-5/1-2222222-|

G|--------------------------------------|
D|--------------------------------------|
G|1111111------------1111111------------|
D|--------22-44-444----------00-22222---|

G|-----------------------------------------------------------|
D|-----------------------------------------------------------|
G|1111111------------1111111----------11111-11111-11111-11111|
D|--------22-44-444----------00-22222------------------------|

G|-----------------------------------------------------|
D|-----------------------------------------------------|
G|-55555-55555-33333-66666-35-55555-55555-33333-6666-3-|
D|-----------------------------------------------------|x2

G|----------------------------------------------------------|
D|----------------------------------------------------------|
G|----------------------------------------------------------|
D|-55555-55555-55555-55555-6666-55555-55555-55555-55555-6666|

G|-------------------------------------------------------|
D|-------------------------------------------------------|
G|-------------------------------------------------------|
D|-55555-55555-55555-55555-6666-55555-55555-55555-55555-6|

G|-------------------------------------------------|
D|-------------------------------------------------|
G|-------------------------------------------------|
D|-5/1-11111\6-5/1-11111\6-5/1-11111\6-5/1-2222222-|

G|--------------------------------------|
D|--------------------------------------|
G|1111111------------1111111------------|
D|--------22-44-444----------00-22222---|

G|-----------------------------------------------------------|
D|-----------------------------------------------------------|
G|1111111------------1111111----------11111-11111-11111-11111|
D|--------22-44-444----------00-22222------------------------|

Rest during guitar intro to bridge.

G|-------------------------------------------------|
D|-------------------------------------------------|
G|-------------------------------------------------|
D|-2202-2202-2202-22-222-3-2202-2202-2202-2202-333-|

G|-------------------------------------------------|
D|-------------------------------------------------|
G|-------------------------------------------------|
D|-2202-2202-2202-22-222-3-2202-2202-2202-222-3333-|

G|--------------------------------------|
D|--------------------------------------|
G|1111111------------1111111------------|
D|--------22-44-444----------00-22222---|

G|--------------------------------------|
D|--------------------------------------|
G|1111111------------1111111------------|
D|--------22-44-444----------00-22222---|

G|--------------------------------------|
D|--------------------------------------|
G|1111111------------1111111------------|
D|--------22-44-444----------00-22222---|

G|-----------------------------------------------------------|
D|-----------------------------------------------------------|
G|1111111------------1111111----------11111-11111-11111-11111|
D|--------22-44-444----------00-22222------------------------|

G|---------------------------|
D|---------------------------|
G|---------------------------|
D|-11-1111-11-1111-11-1111-1-|

/  slide up
\  slide down
Suggest correction
Give kudos to tab author, rate the tab!
1 2 3 4 5
comments
print report bad tab
2 comments total.
0 reply
crazycram42094 72 wrote on December 8 2007, 08:05 pm

what the hell? there is no such thing as the tuing DGDG. fix it retard.

0 reply
bassman2008 10 wrote on May 21 2008, 09:20 pm

dont think so

guest
You may want to rate the tab now too:
select rating
Wanna post a correction for this tab? Suggest correction