Oops, an error
Loading. Please wait.

Prayer Bass Tab

version 3
version 3

Whole song

Interactive

4,789 views 1 this week
no commentswrite comment
1 2 3 4 5
1 last vote to show rating
add to favorites
launch autoscroll
font size
0
reset
guitar tuner
Autoscroll
slow
fast
+/-
esc
set tempo
stop
Help us to improve Ultimate-Guitar.com Take our survey!
×
Author
Tuning
D A D G B E
PRAYER BASS TAB by DISTURBED
Tabbed by TaoK
Tuning: For this TAB drop E string down to Db.

INTRO:
G |---------------------|---------------------|---------------------|--------------------|
D |---------------------|---------------------|---------------------|--------------------|
A |-4-4-4-545-4-4-4-545-|-4-4-4-545-4-4-4-555-|-4-4-4-545-4-4-4-545-|-4-4-4-545-4-4-4-52-|
Db|---------------------|---------------------|---------------------|--------------------|

G |---------------------|---------------------|---------------------|--------------------|
D |---------------------|---------------------|---------------------|--------------------|
A |---------------------|---------------------|---------------------|------------------2-|
Db|-0-0-0-101-0-0-0-101-|-0-0-0-101-0-0-0-101-|-0-0-0-101-0-0-0-101-|-0-0-0-101-0-0-0-1--|


VERSE 1:
G |---------------------|---------------------|---------------------|--------------------|
D |---------------------|---------------------|---------------------|--------------------|
A |-4-4-4-444-4-4-4-444-|-2-2-2-222-5-5-5-554-|-4-4-4-444-4-4-4-444-|-2-2-2-222-5-5-5-52-|
Db|---------------------|---------------------|---------------------|--------------------|

G |---------------------|---------------------|---------------------|--------------------|
D |---------------------|---------------------|---------------------|--------------------|
A |---------------------|-2-2-2-222-5-5-5-554-|---------------------|-2-2-2-222-5-5-5-52-|
Db|-0-0-0-000-0-0-0-000-|---------------------|-0-0-0-000-0-0-0-000-|--------------------|


PRECHORUS:
G |---------------------|---------------------|---------------------|--------------------|
D |---------------------|---------------------|---------------------|--------------------|
A |---------------------|---------------------|---------------------|--------------------|
Db|-7\-1--1-1--1--1-3-8-|-7\-1--1-1--1--1-3-8-|-7\-1--1-1--1--1-3-8-|-7\-5-3-3-3--7------|


CHORUS:
G |---------------------|---------------------|---------------------|--------------------|
D |---------------------|---------------------|---------------------|--------------------|
A |---------------------|---------------------|---------------------|----------2--2--2---|
Db|-8--8-8-8--8--8------|-3--3--5--5--5-5--3--|-7/8--8-8-8--8--8----|-0--0--0------------|

G |---------------------|---------------------|---------------------|--------------------|
D |---------------------|---------------------|---------------------|--------------------|
A |---------------------|---------------------|---------------------|----------2--2--2---|
Db|-7/8--8-8-8--8--8----|-3--3--5--5--5-5--3--|-7/8--8-8-8--8--8----|-0--0--0------------|

G |---------------------|---------------------|---------------------|--------------------|
D |---------------------|---------------------|---------------------|--------------------|
A |---------------------|---------------------|-------545-------545-|-------545-------545|
Db|-8-8-8-888-8-8-8-888-|-8-8-8-888-8-8-8-888-|-0-0-0-----0-0-0-----|-0-0-0-----0-0-0----|

G |---------------------|---------------------|
D |---------------------|---------------------|
A |---------------------|-------------------2-|
Db|-0-0-0-101-0-0-0-101-|-0-0-0-101-0-0-0-1---|


VERSE 2:
G |---------------------|---------------------|---------------------|--------------------|
D |---------------------|---------------------|---------------------|-----------------6\-|
A |-4-4-4-444-4-4-4-444-|-2-2-2-222-5-5-5-554-|-4-4-4-444-4-4-4-444-|-2-2-2-222-5-5-5----|
Db|---------------------|---------------------|---------------------|--------------------|

G |---------------------|---------------------|---------------------|--------------------|
D |---------------------|---------------------|---------------------|--------------------|
A |---------------------|-2-2-2-222-5-5-5-554-|---------------------|-2-2-2-222-5-5-5-5--|
Db|-0-0-0-000-0-0-0-000-|---------------------|-0-0-0-000-0-0-0-000-|--------------------|


PRECHORUS:
G |---------------------|---------------------|---------------------|--------------------|
D |---------------------|---------------------|---------------------|--------------------|
A |---------------------|---------------------|---------------------|--------------------|
Db|-7\-1--1-1--1--1-3-8-|-7\-1--1-1--1--1-3-8-|-7\-1--1-1--1--1-3-8-|-7\-5-3-3-3--7------|


CHORUS:
G |---------------------|---------------------|---------------------|--------------------|
D |---------------------|---------------------|---------------------|--------------------|
A |---------------------|---------------------|---------------------|----------2--2--2---|
Db|-8--8-8-8--8--8------|-3--3--5--5--5-5--3--|-7/8--8-8-8--8--8----|-0--0--0------------|

G |---------------------|---------------------|---------------------|--------------------|
D |---------------------|---------------------|---------------------|--------------------|
A |---------------------|---------------------|---------------------|----------2--2--2---|
Db|-7/8--8-8-8--8--8----|-3--3--5--5--5-5--3--|-7/8--8-8-8--8--8----|-0--0--0------------|

G |---------------------|---------------------|---------------------|--------------------|
D |---------------------|---------------------|---------------------|--------------------|
A |---------------------|---------------------|---------------------|--------------------|
Db|-8-8-8-888-8-8-8-888-|-8-8-8-888-8-8-8-888-|-0-------------------|--------------------|


INTERLUDE:
G |---------------------|---------------------|---------------------|--------------------|
D |---------------------|---------------------|---------------------|--------------------|
A |---------------------|---------------------|---------------------|--------------------|
Db|---------------------|---------------------|-2-------------------|-----------3--3---3-|

G |---------------------|---------------------|---------------------|--------------------|
D |---------------------|---------------------|---------------------|--------------------|
A |---------------------|---------------------|---------------------|--------------------|
Db|-2202---2202---0202--|--2--02--2--0--2-3---|-2202---2202---0202--|--2--02----3--3---3-|

G |---------------------|---------------------|---------------------|--------------------|
D |---------------------|---------------------|---------------------|--------------------|
A |---------------------|---------------------|---------------------|--------------------|
Db|-2202---2202---0202--|--2--02--2--0--2-3---|-2202---2202---0202--|--2--02----3--3---3-|


CHORUS:
G |---------------------|---------------------|---------------------|--------------------|
D |---------------------|---------------------|---------------------|--------------------|
A |---------------------|---------------------|---------------------|----------2--2--2---|
Db|-8--8-8-8--8--8------|-3--3--5--5--5-5--3--|-7/8--8-8-8--8--8----|-0--0--0------------|

G |---------------------|---------------------|---------------------|--------------------|
D |---------------------|---------------------|---------------------|--------------------|
A |---------------------|---------------------|---------------------|----------2--2--2---|
Db|-7/8--8-8-8--8--8----|-3--3--5--5--5-5--3--|-7/8--8-8-8--8--8----|-0--0--0------------|

G |---------------------|---------------------|---------------------|--------------------|
D |---------------------|---------------------|---------------------|--------------------|
A |---------------------|---------------------|---------------------|--------------------|
Db|-7/8--8-8-8--8--8----|-3--3--5--5--5-5--3--|-7/8--8-8-8--8--8----|-3--3--5--5--5-5--3-|

G |---------------------|---------------------|---------------------|--------------------|
D |---------------------|---------------------|---------------------|--------------------|
A |---------------------|---------------------|---------------------|--------------------|
Db|-7/8--8-8-8--8--8----|-3--3--5--5--5-5--3--|-7/8--8-8-8--8--8----|-3--3--5--5--5-5--3-|

G |---------------------|---------------------|---------------------|--------------------|
D |---------------------|---------------------|---------------------|--------------------|
A |---------------------|---------------------|---------------------|--------------------|
Db|-8-8-8-888-8-8-8-888-|-8-8-8-888-8-8-8-888-|-0-0-0-101-0-0-0-101-|-0-0-0-101-0-0------|

Suggest correction
Give kudos to tab author, rate the tab!
1 2 3 4 5
comments
print report bad tab
guest
You may want to rate the tab now too:
select rating
Wanna post a correction for this tab? Suggest correction