Oops, an error
Loading. Please wait.

Prayer Tab

version 5
version 5
922 views 1 this week
2 commentsread comments
1 2 3 4 5
x 3
add to favorites
launch autoscroll
font size
0
reset
how to read this tab
guitar tuner
Autoscroll
slow
fast
+/-
esc
set tempo
stop
Help us to improve Ultimate-Guitar.com Take our survey!
×
Author
--------------------------------------------------------------------
			 PRAYER - Disturbed
--------------------------------------------------------------------

By: SilverCan

Tuning: Down 1/2 step and Drop D (Db Ab Db Gb Bb Eb)

Intro: (play twice)  (not really sure here, but this sounds ok)
|--------------------------------------------------------------------|
|--------------------------------------------------------------------|
|--2--2---2-2-2-2---2--2---2-2-2-2---5--5---5-5-5-5---8--8---8-8-7-7-|
|--x--x---x-x-x-x---x--x---x-x-x-x---x--x---x-x-x-x---x--x---x-x-x-x-|
|--0--0---0-1-0-1---0--0---0-1-0-1---0--0---0-1-0-1---6--6---6-6-5-5-|
|--0--0---0-0-0-0---0--0---0-0-0-0---0--0---0-0-0-0---0--0---0-0-0-0-|

|--------------------------------------------------------------------|
|--------------------------------------------------------------------|
|--2--2---2-2-2-2---2--2---2-2-2-2---5--5---5-5-5-5---8--8---8-8-5---|
|--x--x---x-x-x-x---x--x---x-x-x-x---x--x---x-x-x-x---x--x---x-8-5---|
|--0--0---0-1-0-1---0--0---0-1-0-1---0--0---0-1-0-1---6--6---6-6-3---|
|--0--0---0-0-0-0---0--0---0-0-0-0---0--0---0-0-0-0---0--0---0-------|


Verse: (i think it's just the open Db string repeatedly, but you can 
        play it like this)
|-------------------------------------------
|-------------------------------------------
|-------------------------------------------
|-------------------------------------------
|--12-12------------12-12------------15-15--
|--0--0---0-0-0-0---0--0---0-0-0-0---0--0---

------------------------------------|
------------------------------------|
------------------------------------|
-----------------------------13-10--|
-------------18-18--18-------13-10--|
---0-0-0-0---0--0---0--------13-10--|

Pre-Chorus:
|-------------------------------------------
|-------------------------------------------
|-------------------------------------------
|--7\---1-1--1--1-3-8---7\---1-1--1--1-3-1--
|--7\---1-1--1--1-3-8---7\---1-1--1--1-3-1--
|--7\---1-1--1--1-3-8---7\---1-1--1--1-3-1--

---------------------------------|
---------------------------------|
---------------------------5~----|
-7\---1-1--1--1-3-8---7\---3~----|
-7\---1-1--1--1-3-8---7\---3~----|
-7\---1-1--1--1-3-8---7\---3~----|

Chorus: (keep pinky on highest note when possible, makes chords
         tie together really easy)
|-----------------------------------------------------------
|-----------------------------------------------------------
|--5--5--5--5--5-x-x--5--5--7--7--7-7\-5-/--15-15-15-15-15--
|--3--3--3--3--3-x-x--3--3--5--5--5-5\-3-/--15-15-15-15-15--
|--1--1--1--1--1-x-x--3--3--5--5--5-5\-3-/--13-13-13-13-13--
|----------------x-x--3--3--5--5--5-5\-3-/------------------

-----------------|
-----------------|
--9-7-5--5-7-----|
--7-7-5--5-5-----|
--5-5-3--3-3-----|
-----------------|


Chorus ends on this chord: (x133xx) played repeatedly

Break/Interlude:  (after 1st time thru repeat same pattern 
                   with power chords) (* = palm mute)

|------------------------------------------------------------|
|------------------------------------------------------------|
|------------------------------------------------------------|
|------------------------------------------------------------|
|------------------------------------------------------------|
|--2-2-0-2---2-2-0-2---0-2-0-2---2--0-2---2--0-2--3~---------|

|------------------------------------------------------------|
|------------------------------------------------------------|
|------------------------------------------------------------|
|------------------------------------------------------------|
|------------------------------------------3---3---3---------|
|--2-2-0-2---2-2-0-2---0-2-0-2---2-2-0-2---3---3---3---------|
					   *   *   *

Chorus then played twice, then play Chorus variation:

Chorus Variation: (slide to all these chords)
|---------------------------------------------------------------|
|---------------------------------------------------------------|
|---------------------------------------------------------------|
|---8--8--x-8--8--x-8--8---3---3---5---5---5-5\3-3-/--- repeat -|
|---8--8--x-8--8--x-8--8---3---3---5---5---5-5\3-3-/------------|
|---8--8--x-8--8--x-8--8---3---3---5---5---5-5\3-3-/------------|

Ending: x133xx or 888xxx  repeatedly, and then 00xxxx palm muted.

The End...
Suggest correction
Give kudos to tab author, rate the tab!
1 2 3 4 5
comments
print report bad tab
2 comments total.
0 reply
sean_d 60 Oct 30, 2002 12:00 AM

Sounds good. This is all perfect except I play the intro different. For the intro, I would use the intro version of this song. But other than that, it's awesome.

0 reply
Dream-Guitar 0 Dec 25, 2002 12:00 AM

this is bad....

guest
You may want to rate the tab now too:
select rating
Wanna post a correction for this tab? Suggest correction