Oops, an error
Loading. Please wait.

Prayer Tab

version 8
version 8
2,324 views 1 this week
1 commentread comment
1 2 3 4 5
please rate
add to favorites
launch autoscroll
font size
0
reset
how to read this tab
guitar tuner
Tab Pro tools
  • play this tab
  • loop segment
  • change instrument
  • show fretboard
  • metronome
×
Best way to learn
"Prayer"
Autoscroll
slow
fast
+/-
esc
set tempo
stop
Contributor
Difficulty
Tuning
intermediate
C# G# C# F# A# D#
Gtr I (Db Ab Db Gb Bb Eb) - 'Guitar 1'
Gtr II (Db Ab Db Gb Bb Eb) - 'Guitar 2'
Gtr III (Db Ab Db Gb Bb Eb) - 'Guitar 3'
Gtr IV (Db Ab Db Gb Bb Eb) - 'Pick Scrape'


 Intro
  Q=98
     (D5)
 1/4       4/4
  Gtrs I, II
  E.  S     S  e  S  S  S  S  e  e  S  S  S  S  S
|-------||----------------------------------------|
|-------||o---------------------------------------|
|-------||----------------------------------------|
|-------||----------------------------------------|
|----12-||o---12-12-12-12-12-12-12-12-12-12-12-15-|
|-----0-||-----0--0-13--0-13--0--0--0-13--0-13--0-|


  S  e  S  S  S  S  e  e  S  S  S  S  S
|----------------------------------------|
|----------------------------------------|
|----------------------------------------|
|----------------------------------------|
|---15-15-15-15-15-18-18-18-18-17-17-12--|
|----0--0-13--0-13--0--0--0-13--0-13--0--|


                                         1.
                                                                    Eb5C5 (D5)
  S  e  S  S  S  S  e  e  S  S  S  S  S   S  e  S  S  S  S  e  e  S  S  E  S
|---------------------------------------|-------------------------------------||
|---------------------------------------|------------------------------------o||
|---------------------------------------|-------------------------------------||
|---------------------------------------|-------------------------------------||
|---12-12-12-12-12-12-12-12-12-12-12-15-|---15-15-15-15-15-18-18-18-13-10-12-o||
|----0--0-13--0-13--0--0--0-13--0-13--0-|----0--0-13--0-13--0--0--0-13-10--0--||


  2.
                            Eb5C5
  S  e  S  S  S  S  e  e  S  S  E S
|-----------------------------------|
|-----------------------------------|
|-----------------------------------|
|-----------------------------------|
|---15-15-15-15-15-18-18-18-13-10---|
|----0--0-13--0-13--0--0--0-13-10-0-|


   Verse
      N.C.                                          Eb5C5
    PM--------------------------------------------|       PM
    S e S S S S e e S S S S S  3x S e S S S S e e S  S  E S
||-----------------------------||-----------------------------|
||o---------------------------o||-----------------------------|
||-----------------------------||-----------------------------|
||-----------------------------||-----------------------------|
||o---------------------------o||-------------------13-10-----|
||----0-0-0-0-0-0-0-0-0-0-0-0--||---0-0-0-0-0-0-0-0-13-10-0---|


    N.C.                                            Eb5C5
    PM--------------------------------------------|
    S e S S S S e e S S S S S  3x S e S S S S e e S  S  E.
||-----------------------------||--------------------------||
||o---------------------------o||--------------------------||
||-----------------------------||--------------------------||
||-----------------------------||--------------------------||
||o---------------------------o||-------------------13-10--||
||----0-0-0-0-0-0-0-0-0-0-0-0--||---0-0-0-0-0-0-0-0-13-10--||


   Pre-Chorus
    $
    A5        Eb5         F5Bb5
    E +E  S S S S S S S S E E
||----------------------------|
||o---------------------------|
||----------------------------|
||--7-(7)Sx-x-1-1---1---1-3-8-|
||o-7-(7)Sx-x-1-1---1---1-3-8-|
||--7-(7)Sx-x-1-1---1---1-3-8-|


 1.                            2.
  A5        Eb5         F5Eb5   A5        F5        F5
  E +E  S S S S S S S S E E     E +E  S S E +Q   E.  S
|----------------------------||------------------------|
|---------------------------o||------------------------|
|----------------------------||-----------5-(5)--5-----|
|-7-(7)Sx-x-1-1---1---1-3-1--||-7-(7)Sx-x-3-(3)--3--10-|
|-7-(7)Sx-x-1-1---1---1-3-1-o||-7-(7)Sx-x-3-(3)--3---8-|
|-7-(7)Sx-x-1-1---1---1-3-1--||-7-(7)Sx-x-3-(3)--3-----|


 Chorus
  $$
  Bbsus2                            F5             G5      F5
   E.  S  +E   E  +S   E.  E  S S   E. S +E  E +S  S S S S S E
|---------------------------------|----------------------------|
|---------------------------------|----------------------------|
|---------------------------------|-5--5-(5)-7-(7)-7-7-7-7s5-5-|
|-10--10-(10)-10-(10)-10--10\-x-x-|-3--3-(3)-5-(5)-5-5-5-5s3-3-|
|--8---8--(8)--8--(8)--8---8\-x-x-|-3--3-(3)-5-(5)-5-5-5-5s3-3-|
|--8---8--(8)--8--(8)--8---8\-x-x-|-3--3-(3)-5-(5)-5-5-5-5s3-3-|


    BbBbsus2                 Dsus2
  S E  S  +E   E  +S   E.  E  S  S
|-----------------------------------|
|-----------------------------------|
|-----------------------------------|
|-----10-(10)-10-(10)-10--10S14-14--|
|-3s8--8--(8)--8--(8)--8---8S12-12--|
|-3s8--8--(8)--8--(8)--8---8S12-12--|


      D5      C5               Csus2
   E.  S  +E   E  +S   E  S  S  S  S  S
|---------------------------------------|
|---------------------------------------|
|---------------------------------------|
|-14--12-(12)-10-(10)-10-10-10-12-12-12-|
|-12--12-(12)-10-(10)-10-10-10-10-10-10-|
|-12--12-(12)-10-(10)-10-10-10-10-10-10-|


  Bbsus2                           F5       G5            F5
   E.  S  +E   E  +S   E.  E S S   E. S +E  E +S  S S S S S S S
|--------------------------------|------------------------------|
|--------------------------------|------------------------------|
|--------------------------------|-5--5-(5)-7-(7)-7-7-7-7s5-5-5-|
|-10--10-(10)-10-(10)-10--10-x-x-|-3--3-(3)-5-(5)-5-5-5-5s3-3-3-|
|--8---8--(8)--8--(8)--8---8-x-x-|-3--3-(3)-5-(5)-5-5-5-5s3-3-3-|
|--8---8--(8)--8--(8)--8---8-x-x-|-3--3-(3)-5-(5)-5-5-5-5s3-3-3-|


    BbBbsus2                 Dsus2
  S E  S  +E   E  +S   E.  E  S  S
|----------------------------------|
|----------------------------------|
|----------------------------------|
|-----10-(10)-10-(10)-10--10S14-14-|
|-3s8--8--(8)--8--(8)--8---8S12-12-|
|-3s8--8--(8)--8--(8)--8---8S12-12-|


                            To Dbl. Coda                     To Coda
      D5      C5                  Csus2 Bb5
   E.  S  +E   E  +S   S  S  S  S  S  S S   S e S S S S e e S S S S S
|-----------------------------------------|----------------------------|
|-----------------------------------------|----------------------------|
|-----------------------------------------|----------------------------|
|-14--12-(12)-10-(10)-10-10-10-10-12-12-8-|---8-8-8-8-8-8-8-8-8-8-8-8--|
|-12--12-(12)-10-(10)-10-10-10-10-10-10-8-|---8-8-8-8-8-8-8-8-8-8-8-8--|
|-12--12-(12)-10-(10)-10-10-10-10-10-10-8-|---8-8-8-8-8-8-8-8-8-8-8-8--|


                              Pre-Verse
                               N.C.
  S e S S S S e e S S S S  S   S  e  S  S  S  S  e  e  S  S  S  S  S
|----------------------------|---------------------------------------|
|----------------------------|---------------------------------------|
|----------------------------|---------------------------------------|
|---8-8-8-8-8-8-8-8-8-8-8----|---------------------------------------|
|---8-8-8-8-8-8-8-8-8-8-8-12-|---12-12-12-12-12-12-12-12-12-12-12-15-|
|---8-8-8-8-8-8-8-8-8-8-8--0-|----0--0-13--0-13--0--0--0-13--0-13--0-|


  S  e  S  S  S  S  e  e  S  S  S  S  S
|---------------------------------------|
|---------------------------------------|
|---------------------------------------|
|---------------------------------------|
|---15-15-15-15-15-18-18-18-18-17-17-12-|
|----0--0-13--0-13--0--0--0-13--0-13--0-|


  S  e  S  S  S  S  e  e  S  S  S  S  S   S  e  S  S  S  S  e  e  S  S  E S
|---------------------------------------|------------------------------------|
|---------------------------------------|------------------------------------|
|---------------------------------------|------------------------------------|
|---------------------------------------|------------------------------------|
|---12-12-12-12-12-12-12-12-12-12-12-15-|---15-15-15-15-15-18-18-18-13-10----|
|----0--0-13--0-13--0--0--0-13--0-13--0-|----0--0-13--0-13--0--0--0-13-10-0--|


   Verse
    N.C.                                            Eb5C5
    PM--------------------------------------------|       PM
    S e S S S S e e S S S S S  3x S e S S S S e e S  S  E S
||-----------------------------||---------------------------|
||o---------------------------o||---------------------------|
||-----------------------------||---------------------------|
||-----------------------------||---------------------------|
||o---------------------------o||-------------------13-10---|
||----0-0-0-0-0-0-0-0-0-0-0-0--||---0-0-0-0-0-0-0-0-13-10-0-|


                                          D.S. al Coda
    N.C.
    PM----------------------------------------------|
    S e S S S S e e S S S S S  3x S e S S S S e e S Q
||-----------------------------||----------------------||
||o---------------------------o||----------------------||
||-----------------------------||----------------------||
||-----------------------------||----------------------||
||o---------------------------o||----------------------||
||----0-0-0-0-0-0-0-0-0-0-0-0--||---0-0-0-0-0-0-0-0-0--||


  &
    Bb5                   D5
                                                    Gtr IV
  S e S S S S e e S S S S S   +W           +H.      Q
|---------------------------|------------|--------------||
|---------------------------|------------|--------------||
|---------------------------|------------|--------------||
|---8-8-8-8-8-8-8-8-8-8-8-0-|-(0)--------|-(0)----------||
|---8-8-8-8-8-8-8-8-8-8-8-0-|-(0)--------|-(0)------x\--||
|---8-8-8-8-8-8-8-8-8-8-8-0-|-(0)--------|-(0)------x\--||


 Interlude
  N.C.
  Gtrs I, II
  S S S S E S S S S E S S S S   E e S S E e S e E.
|-----------------------------|--------------------|
|-----------------------------|--------------------|
|-----------------------------|--------------------|
|-----------------------------|--------------------|
|-----------------------------|--------------------|
|-2-2-0-2---2-2-0-2---0-2-0-2-|---2-0-2---2-0-2-3--|


                                          Fsus2
                                          PM-------|
  S S S S E S S S S E S S S S   E e S S E E. S +E  E
|-----------------------------|-----------------------||
|-----------------------------|-----------------------||
|-----------------------------|-----------------------||
|-----------------------------|-----------5--5-(5)-5--||
|-----------------------------|-----------3--3-(3)-3--||
|-2-2-0-2---2-2-0-2---0-2-0-2-|---2-0-2---3--3-(3)-3--||


   Bridge
    E5  D5E5      D5E5  D5E5D5E5      D5E5    D5E5Fsus2
    S S S S E S S S S E S S S S   E e S S E e S e E.
||------------------------------|--------------------|
||o-----------------------------|--------------------|
||------------------------------|--------------------|
||------------------------------|-----------------5--|
||o-2-2-0-2---2-2-0-2---0-2-0-2-|---2-0-2---2-0-2-3--|
||--2-2-0-2---2-2-0-2---0-2-0-2-|---2-0-2---2-0-2-3--|


                                D.S.S. al Dbl. Coda
  E5  D5E5      D5E5  D5E5D5E5      D5E5  Fsus2
  S S S S E S S S S E S S S S   E e S S E E. S +E  E
|-----------------------------|-----------------------||
|-----------------------------|----------------------o||
|-----------------------------|-----------------------||
|-----------------------------|-----------5--5-(5)-5--||
|-2-2-0-2---2-2-0-2---0-2-0-2-|---2-0-2---3--3-(3)-3-o||
|-2-2-0-2---2-2-0-2---0-2-0-2-|---2-0-2---3--3-(3)-3--||


  &&
  Bb5                                   F5          G5                  F5
           PM-|                                              PM---|
   E.  S   S  S  E  +S   S  S S  E  E    E.  S  +E   E  +S   S  S  S  S S  S S
|-------------------------------------|----------------------------------------|
|-------------------------------------|----------------------------------------|
|-------------------------------------|----------------------------------------|
|--8---8---8--8--8--(8)--8--8-8--8--8S|==3---3--(3)--5--(5)--5--5--5--5s3--3-3-|
|--8---8---8--8--8--(8)--8--8-8--8--8S|==3---3--(3)--5--(5)--5--5--5--5s3--3-3-|
|--8---8---8--8--8--(8)--8--8-8--8--8S|==3---3--(3)--5--(5)--5--5--5--5s3--3-3-|
|
| Gtr III
|  E.  S  +E     E  +S   E.      E  E    E.  S  +E   E  +S   S  S  S  E    E
|-------------------------------------|----------------------------------------|
|-10--11-(11)---10-(10)-11------10----|-10--11-(11)-10-(10)-13-13-13-10---13---|
|----------------------------------10-|----------------------------------------|
|-------------------------------------|----------------------------------------|
|-------------------------------------|----------------------------------------|
|-------------------------------------|----------------------------------------|


    Bb5
              PM-|             PM|
     S E  S   S  S  E  +S   S  S S  E  E
||---------------------------------------|
||o--------------------------------------|
||---------------------------------------|
||---3s8--8---8--8--8--(8)--8--8-8--8--8-|
||o--3s8--8---8--8--8--(8)--8--8-8--8--8-|
||---3s8--8---8--8--8--(8)--8--8-8--8--8-|
|
|    E.   S  +E     E  +S   E.      E  E
||---------------------------------------|
||o-10---11-(11)---10-(10)-11------10----|
||------------------------------------10-|
||---------------------------------------|
||o--------------------------------------|
||---------------------------------------|


  F5          G5                  F5
                       PM---|
   E.  S  +E   E  +S   S  S  S  S S  S S
|-----------------------------------------||
|----------------------------------------o||
|-----------------------------------------||
|--3---3--(3)--5--(5)--5--5--5--5s3--3-3--||
|--3---3--(3)--5--(5)--5--5--5--5s3--3-3-o||
|--3---3--(3)--5--(5)--5--5--5--5s3--3-3--||
|
|  E.  S  +E   E  +S   S  S  S  E    E
|-----------------------------------------||
|-10--11-(11)-10-(10)-13-13-13-10---13---o||
|-----------------------------------------||
|-----------------------------------------||
|----------------------------------------o||
|-----------------------------------------||


  Bb5
            PM-|             PM|
   S E  S   S  S  E  +S   S  S S  E  E
|--------------------------------------|
|--------------------------------------|
|--------------------------------------|
|--3s8--8---8--8--8--(8)--8--8-8--8--8-|
|--3s8--8---8--8--8--(8)--8--8-8--8--8-|
|--3s8--8---8--8--8--(8)--8--8-8--8--8-|
|
|  E.   S  +E     E  +S   E.      E  E
|--------------------------------------|
|-10---11-(11)---10-(10)-11------10----|
|-----------------------------------10-|
|--------------------------------------|
|--------------------------------------|
|--------------------------------------|


  F5          G5                  F5   Bb5
                       PM---|
   E.  S  +E   E  +S   S  S  S  S S  S S
|----------------------------------------||
|----------------------------------------||
|----------------------------------------||
|--3---3--(3)--5--(5)--5--5--5--5s3--3s8-||
|--3---3--(3)--5--(5)--5--5--5--5s3--3s8-||
|--3---3--(3)--5--(5)--5--5--5--5s3--3s8-||
|
|  E.  S  +E   E  +S   S  S  S  E    E
|----------------------------------------||
|-10--11-(11)-10-(10)-13-13-13-10---13---||
|----------------------------------------||
|----------------------------------------||
|----------------------------------------||
|----------------------------------------||


 Outro
    Bb5                                               D5
  S e S S S S e e S S S S S   S e S S S S e e S S S S S
|---------------------------|---------------------------|
|---------------------------|---------------------------|
|---------------------------|---------------------------|
|---8-8-8-8-8-8-8-8-8-8-8-8-|---8-8-8-8-8-8-8-8-8-8-8---|
|---8-8-8-8-8-8-8-8-8-8-8-8-|---8-8-8-8-8-8-8-8-8-8-8-0-|
|---8-8-8-8-8-8-8-8-8-8-8-8-|---8-8-8-8-8-8-8-8-8-8-8-0-|


    PM--------------------|     PM----------|
  S e S S S S e e S S S S S   S e S S S S e S Q.
|---------------------------|----------------------*|
|---------------------------|----------------------*|
|---------------------------|----------------------*|
|---------------------------|----------------------*|
|---0-0-0-0-0-0-0-0-0-0-0-0-|---0-0-0-0-0-0-0------*|
|---0-0-0-0-0-0-0-0-0-0-0-0-|---0-0-0-0-0-0-0------*|




--------------------------------------------------------------------------------


Duration Legend
---------------
W - whole; H - half; Q - quarter; E - 8th; S - 16th; T - 32nd; X - 64th; a - acciaccatura
+ - note tied to previous; . - note dotted; .. - note double dotted
Uncapitalized letters represent notes that are staccato (1/2 duration)
Irregular groupings are notated above the duration line
Duration letters will always appear directly above the note/fret number it represents the
duration for.  Duration letters with no fret number below them represent rests.  Multi-
bar rests are notated in the form Wxn, where n is the number of bars to rest for.  Low
melody durations appear below the staff

Tablature Legend
----------------
 h   - hammer-on
 p   - pull-off
 b   - bend
 pb  - pre-bend
 r   - bend release (if no number after the r, then release immediately)
 /\  - slide into or out of (from/to "nowhere")
 s   - legato slide
 S   - shift slide
 - natural harmonic
[n]  - artificial harmonic
n(n) - tapped harmonic
 ~   - vibrato
 tr  - trill
 T   - tap
 TP  - trem. picking
 PM  - palm muting
\n/  - tremolo bar dip; n = amount to dip
 \n  - tremolo bar down
 n/  - tremolo bar up
/n\  - tremolo bar inverted dip
 =   - hold bend; also acts as connecting device for hammers/pulls
 <> - volume swell (louder/softer)
 x   - on rhythm slash represents muted slash
 o   - on rhythm slash represents single note slash

Misc Legend
-----------
 |  - bar
||  - double bar
||o - repeat start
o|| - repeat end
*|  - double bar (ending)
 :  - bar (freetime)
 $  - Segno
 &  - Coda
Tempo markers -  = BPM(8/16=s8/s16), where s8 = swing 8ths, s16 = swing 16ths


comments
We did not receive enough feedback on this tab! Please rate:
print report bad tab
1 2 3 4 5
1 comment total.
0 reply
sk8boi3 wrote on July 5 2009, 04:01 am

no need to make it so confusing bro. the point of a tab is just to get the basics. not to write exactly everything in the song. looks like it took a looooong time to do tho...

I want to post or [tab]
guest
You may want to rate the tab now too:
select rating
Please do not post tabs as comments. Select "correction" instead!