Oops, an error
Loading. Please wait.

Remember Tab

version 1
version 1

Acoustic

4,179 views 1 this week
1 commentread comment
1 2 3 4 5
please rate
add to favorites
launch autoscroll
font size
0
reset
how to read this tab
guitar tuner
Autoscroll
slow
fast
+/-
esc
set tempo
stop
Help us to improve Ultimate-Guitar.com Take our survey!
×
Author
Tuning
C# G# C# F# A# D#
Disturbed did an amazing and breath taking acoustic/electric version of their song 
"Remember", live. 
This tab is based off of the bootleg version of the song. Its absolutely amazing. Enjoy. 



Intro 1 :
       Dm      

eb|-----1---------1-------1---------1----|
Bb|-----3---------3-------3---------3----|
Gb|-----2---------2-------2---------2----|
Db|-----0---------0-------0---------0----|
Ab|--0---------0-------0---------0-------|
Db|-0---------0-------0---------0--------|

Intro 2:

        Dm    D5    Dsus4     Dm

eb|--------1p0-----3p1---1------1-----------------|    \
Bb|------3-----3-------1------3-------------------|     \
Gb|----2---------2----------2---------------------| x3   \
Db|-0---------------------------------------------|       \
Ab|-----------------------------------------------|        \
Db|-----------------------------------------------|         \
                                                             \
on third time play:                                           \
                                                                x2
       Dm     D5   Dsus4                                      /
                                                             /
eb|--------1p0-----3-----5-----1------------------|         /
Bb|------3-----3-----3-----3----------------------|        /
Gb|----2---------2-----2-----2--------------------|       /
Db|-0---------------------------------------------|      /
Ab|-----------------------------------------------|     /
Db|-----------------------------------------------|    /

Verse:

eb|-1--1-x---1--1-x---1--1-1---1--1-x---1--1-x---1--1-1--|
Bb|-3--3-x---3--3-x---3--3-3---3--3-x---3--3-x---3--3-3--| 
Gb|-2--2-x---2--2-x---0--0-0---3--3-x---3--3-x---0--0-0--| 
Db|-0--0-x---0--0-x---0--0-0---0--0-x---0--0-x---0--0-0--|
Ab|------------------------------------------------------|
Db|------------------------------------------------------|

Chorus:

eb|-------------------------------0--0000-0000-00--0-0000-0000-00---|
Bb|-------------------------------1--1111-1111-11--1-1111-1111-11-/-|
Gb|------------------9-9999-9999--2--2222-2222-22--2-2222-2222-22---|
Db|-8-8888--8888--7--7-7777-7777--0--0000-0000-00--0-0000-0000-00---|
Ab|-8-8888--8888--7--7-7777-7777------------------------------------|
Db|-8-8888--8888--7--7-7777-7777------------------------------------|

eb|----------------------------------------------------------|
Bb|-10--10101010-1010101011--1111--10--10101010-101010-------|
Gb|-x---x-x-x-x--x-x-x-x-x---x-x---x---x-x-x-x--x-x-x-9--99--|
Db|-8---8-8-8-8--8-8-8-8-8---8-8---8---8-8-8-8--8-8-8-7--77--|
Ab|-8---8-8-8-8--8-8-8-8-8---8-8---8---8-8-8-8--8-8-8-7--77--|
Db|-8---8-8-8-8--8-8-8-8-8---8-8---8---8-8-8-8--8-8-8-7--77--|

eb|---------------------------------------------------------------|
Bb|-------10-1010-------10-1010---------10-1010--------10-1010----|
Gb|-9-99--x--x-x---9-99--x--x-x---9--99--x--x-x---9-99--x--x-x----|
Db|-7-77--7--7-7---7-77--7--7-7---7--77--7--7-7---7-77--7--7-7----|
Ab|-7-77--7--7-7---7-77--7--7-7---7--77--7--7-7---7-77--7--7-7----|
Db|-7-77--7--7-7---7-77--7--7-7---7--77--7--7-7---7-77--7--7-7----|


Repeat Intro 2 only once

Then Verse

After, the electric guitar comes in and plays normally as it would in the normal 
song (Already tabbed perfectly by Joe@Disturbed16).

Amazing song, enjoy.
Suggest correction
Give kudos to tab author, rate the tab!
1 2 3 4 5
comments
print report bad tab
1 comment total.
0 reply
Chris6842 101 wrote on October 3 2014, 01:24 am

Looks good but whats the strumming pattern for the verses and chorus?

guest
You may want to rate the tab now too:
select rating
Please do not post tabs as comments. Select "correction" instead!