Oops, an error
Loading. Please wait.

Remember Bass Tab

version 2
version 2

Whole song

337 views 3 this week
no commentswrite comment
1 2 3 4 5
please rate
add to favorites
launch autoscroll
font size
0
reset
guitar tuner
Autoscroll
slow
fast
+/-
esc
set tempo
stop
Help us to improve Ultimate-Guitar.com Take our survey!
×
Contributor
Difficulty
LordShado 304
intermediate
-------------------------------------------------------------------------------
			     Remember - Disturbed
-------------------------------------------------------------------------------

Tabbed By : Brian Norman(Lordshado)
e-mail: superambush@yahoo.com

Tuning:Standard(BEADG)

Disturbed - Remember(Five String Bass Tab)
With this tab if you have a five string you don't have to tune down to Drop Db.

Intro
G|----------------|
D|----------------|
A|----------------|
E|----5----4------|
B|2-25-2225-25252-|(Repeat)

G|-----------------|
D|-----------------|
A|-----------------|
E|----5----4-----4-|
B|2-25-2225--2252--|

Verse
G|----------------|
D|----7~--6~------|
A|4-47-447-447474-|
E|----------------|
B|----------------|(Repeat)

(2nd time)
E|777

Chorus
G|---------------------------------|
D|---------------------------------|
A|---------------------------------|
E|5--55-55-55-4444-----------------|
B|----------------2--22-22-22-2222-|

G|------------------------------------|
D|------------------------------------|
A|-------------------------2h4-44420--|
E|0--00-00-00-2222------------------4-|
B|----------------2--22-22------------|

G|---------------------------------|
D|---------------------------------|
A|-----------------------2h44-2h44-|
E|5--55-55-55-4444-----------------|
B|----------------2-22-22----------|

E|2-2222-2-2-2222-2-4-4444-4-4-4444

Bridge
G|----------------------------|
D|----------------------------|
A|----------------------------|
E|5--555/9-9-99-5-------------|
B|---------------5-2-2-22-5-2-|

G|---------------------------------|
D|---------------------------------|
A|-------------------2h4-2h4-2h4-4-|
E|5--555/9-9-99-5------------------|
B|---------------5-2---------------|

G|----------------------------|
D|----------------------------|
A|----------------------------|
E|5--555/9-9-99-5-------------|
B|---------------5-2-2-22-5-2-|

G|---------------------------------|
D|---------------------------------|
A|---------------------------------|
E|2-22-2--2-2-22-------------------|
B|--------------5-4-44-4--4-4-44---|

Verse 2
G|-----------------|
D|-----------------|
A|-----------------|
E|----55----4------|
B|2225--2225-25252-|(Repeat)

E|0--0

Chorus
G|---------------------------------|
D|---------------------------------|
A|---------------------------------|
E|5--55-55-55-4444-----------------|
B|----------------2--22-22-22-2222-|

G|------------------------------------|
D|------------------------------------|
A|-------------------------2h4-44420--|
E|0--00-00-00-2222------------------4-|
B|----------------2--22-22------------|

G|---------------------------------|
D|---------------------------------|
A|-----------------------2h44-2h44-|
E|5--55-55-55-4444-----------------|
B|----------------2-22-22----------|

E|2-2222-2-2-2222-2-4-4444-4-4-4444

G|---------------------------------|
D|---------------------------------|
A|---------------------------------|
E|5--55-55-55-4444-----------------|
B|----------------2--22-22-22-2222-|

G|------------------------------------|
D|------------------------------------|
A|-------------------------2h4-44420--|
E|0--00-00-00-2222------------------4-|
B|----------------2--22-22------------|

G|---------------------------------|
D|---------------------------------|
A|-----------------------2h44-2h44-|
E|5--55-55-55-4444-----------------|
B|----------------2-22-22----------|

E|22222222222222222-444444444444444

Outro
G|----------------------------------|
D|----------------------------------|
A|----------------------------------|
E|----5----4----------5----4--------|
B|2-25-2225-25252-2-25-2225--2-5-52-|(Repeat)

Ending
B|2-5

| /  slide up
| \  slide down
| h  hammer-on
| ~  vibrato
comments
We did not receive enough feedback on this tab! Please rate:
print report bad tab
1 2 3 4 5
I want to post or [tab]
guest
You may want to rate the tab now too:
select rating
Please do not post tabs as comments. Select "correction" instead!