Oops, an error
Loading. Please wait.

Remember Tab

version 4
version 4
1,130 views 1 this week
4 commentsread comments
1 2 3 4 5
worth learning
x 6
add to favorites
launch autoscroll
font size
0
reset
how to read this tab
guitar tuner
Tab Pro tools
  • play this tab
  • loop segment
  • change instrument
  • show fretboard
  • metronome
Autoscroll
slow
fast
+/-
esc
set tempo
stop
Contributor
Tabbed by Adalberto Loredo (hardrock@musician.org)


Disturbed - Remember

Tune down half a step (drop Db)
 
Low to high 
 6.- Db
 5.- Ab
 4.- db
 3.- Gb
 2.- Bb
 1.- Eb

[----------------------------------------------------------------------------------------------------Repeat twice-----]
 eb----------------------------|----------------------------|----------------------------|---------------------------|
 bb----------------------------|----------------------------|----------------------------|---------------------------|
 gb----------------------------|----------------------------|----------------------------|---------------------------|
 db----------------------------|----------------------------|----------------------------|---------------------------|
 Ab--0-----8---------7-2-3-2-3-|-0-----8---------7-2-3----3-|-0-----8---------7-2-3-2-3--|-0-----8---------7-x-2-x-3-|
 Db--0-0-0-8-0-0-0-0-7-2-3-2-3-|-0-0-0-8-0-0-0-0-7-2-3----3-|-0-0-0-8-0-0-0-0-7-2-3-2-3--|-0-0-0-8-0-0-0-0-7-x-2-x-3-|
       . .   . . . .   . . . .     . .   . . . .                . .   . . . .   . . . .      . .   . . . .

[--------------------------------------------------------------------------------------------             
 eb-----------------------------------------|-----------------------------------------------|
 bb-----------------------------------------|-----------------------------------------------|
 gb-----------------------------------------|-----------------------------------------------|
 db-----------------------------------------|-----------------------------------------------|
 Ab-----------13----------12----------------|----------13---------12----------13---------12-|
 Db--0--12-14----0-12-14-----0--12-14-12-14-|0--12-14-----0-12-14----0--12-14----0-12-14----|

 ---------------------------------Repeat twice--]
 eb--------------------------------------------|
 bb--------------------------------------------|
 gb--------------------------------------------|
 db--------------------------------------------|
 ab-----------------------13----------10-10-10-|
 Db-0-12-14-12-14-0-12-14----0-12-14--10-10-10-|

 
 eb----------------------------|----------------------------|----------------------------|---------------------------|
 bb----------------------------|----------------------------|----------------------------|---------------------------|
 gb----------------------------|----------------------------|----------------------------|---------------------------|
 db----------------------------|----------------------------|----------------------------|---------------------------|
 Ab--8---------------------7-7-|-0--------------------------|-3--------------/5----------|-0-------------------------|
 Db--8---------------------7-7-|-0--------------------------|-3--------------/5----------|-0-------------------------|

 eb----------------------------|----------------------------|----------------------------|---------------------------|
 bb----------------------------|----------------------------|----------------------------|---------------------------|
 gb----------------------------|----------------------------|----------------------------|---------------------------|
 db----------------------------|----------------------------|----------------------------|---------------------------|
 Ab--8---------------------7-7-|-0--------------------------|-5--------------------------|-7-------------------------|
 Db--8---------------------7-7-|-0--------------------------|-5--------------------------|-7-------------------------|


 eb-----------------------------------------|-----------------------------------------------|
 bb-----------------------------------------|-----------------------------------------------|
 gb-----------------------------------------|-----------------------------------------------|
 db-----------------------------------------|-----------------------------------------------|
 Ab-----------13----------12----------------|----------13---------12----------13---------12-|
 Db--0--12-14----0-12-14-----0--12-14-12-14-|0--12-14-----0-12-14----0--12-14----0-12-14----|

 eb--------------------------------------------|
 bb--------------------------------------------|
 gb--------------------------------------------|
 db--------------------------------------------|
 ab-----------------------13----------10-10-10-|
 Db-0-12-14-12-14-0-12-14----0-12-14--10-10-10-|

 eb-----------------------------------------|-----------------------------------------------|
 bb-----------------------------------------|-----------------------------------------------| <-- this here is just the same 
 gb-----------------------------------------|-----------------------------------------------|     thing, just with the sixth
 db-----------------------------------------|-----------------------------------------------|     string palm muted :P
 Ab-----------13----------12----------------|----------13---------12----------13---------12-|
 Db--0--12-14----0-12-14-----0--12-14-12-14-|0--12-14-----0-12-14----0--12-14----0-12-14----|
     .   .  .     . .  .     .   .  .  .  .  .  .   .     .  .  .    .   .  .    .  .  .
 eb--------------------------------------------|
 bb--------------------------------------------|
 gb--------------------------------------------| 
 db--------------------------------------------|
 ab-----------------------13----------10-10-10-|
 Db-0-12-14-12-14-0-12-14----0-12-14--10-10-10-|
    .  .  .  .  . .  .  .    .  .  .

 eb-----------------------------------------|-----------------------------------------------|
 bb-----------------------------------------|-----------------------------------------------|  <-- then once again without 
 gb-----------------------------------------|-----------------------------------------------|      the palm muting
 db-----------------------------------------|-----------------------------------------------|
 Ab-----------13----------12----------------|----------13---------12----------13---------12-|
 Db--0--12-14----0-12-14-----0--12-14-12-14-|0--12-14-----0-12-14----0--12-14----0-12-14----|

 eb--------------------------------------------|
 bb--------------------------------------------|
 gb--------------------------------------------|
 db--------------------------------------------|
 ab-----------------------13---------12--------|
 Db-0-12-14-12-14-0-12-14----0-12-14-----------|

 eb----------------------------|----------------------------|----------------------------|---------------------------|
 bb----------------------------|----------------------------|----------------------------|---------------------------|
 gb----------------------------|----------------------------|----------------------------|---------------------------|
 db----------------------------|----------------------------|----------------------------|---------------------------|
 Ab--8---------------------7-7-|-0--------------------------|-3------------/5------------|-0-------------------------|
 Db--8---------------------7-7-|-0--------------------------|-3------------/5------------|-0-------------------------|

 eb----------------------------|----------------------------|----------------------------|---------------------------|
 bb----------------------------|----------------------------|----------------------------|---------------------------|
 gb----------------------------|----------------------------|----------------------------|---------------------------|
 db----------------------------|----------------------------|----------------------------|---------------------------|
 Ab--8---------------------7-7-|-0--------------------------|-5--------------------------|-7-------------------------|
 Db--8---------------------7-7-|-0--------------------------|-5--------------------------|-7-------------------------|

 eb----------------------------|----------------------------|----------------------------|---------------------------|
 bb----------------------------|----------------------------|----------------------------|---------------------------|
 gb----------------------------|----------------------------|----------------------------|---------------------------|
 db----------------------------|----------------------------|----------------------------|---------------------------|
 Ab--8---8-x-x-8/12-12-12-12\8-|-0--------------------------|-8---8-x-x-8/12-12-12-12\8--|-0----0----0----0----0-0---|
 Db--8---8-x-x-8/12-12-12-12\8-|-0--------------------------|-8---8-x-x-8/12-12-12-12\8--|-0----0----0----0----0-0---|

 eb----------------------------|----------------------------|----------------------------|---------------------------|
 bb----------------------------|----------------------------|----------------------------|---------------------------|
 gb----------------------------|----------------------------|----------------------------|---------------------------|
 db----------------------------|----------------------------|----------------------------|---------------------------|
 Ab--8-8-x-x-8/12-12-12-12\8---|-0--------------------------|-5--------------------------|-2-------------------------|
 Db--8-8-x-x-8/12-12-12-12\8---|-0--------------------------|-5--------------------------|-2-------------------------|

[--------------------------8 times----] 
 eb----------------------------------|
 bb----------------------------------|
 gb----------------------------------|
 db----------------------------------|
 ab----------8-8---------7-7---------|
 Db--0-0-0-0-8-8-0-0-0-0-7-7-0-0-0-0-|
     . . . .     . . . .     . . . .
     
 last time, you go like this
 eb----------------------------------|
 bb----------------------------------|
 gb----------------------------------|
 db----------------------------------|
 ab----------8-8---------7----7------|
 Db--0-0-0-0-8-8-0-0-0-0-7----7------|
     . . . .     . . . .     

[---------------------------------------------------------------------------------------------------------------------
 eb----------------------------|----------------------------|----------------------------|---------------------------|
 bb----------------------------|----------------------------|----------------------------|---------------------------|
 gb----------------------------|----------------------------|----------------------------|---------------------------|
 db----------------------------|----------------------------|----------------------------|---------------------------|
 Ab--8---------------------7-7-|-0--------------------------|-3------------/5------------|-0-------------------------|
 Db--8---------------------7-7-|-0--------------------------|-3------------/5------------|-0-------------------------|

 -----------------------------------------------------------------------------------------------Twice again-----------]
 eb----------------------------|----------------------------|----------------------------|---------------------------|
 bb----------------------------|----------------------------|----------------------------|---------------------------|
 gb----------------------------|----------------------------|----------------------------|---------------------------|
 db----------------------------|----------------------------|----------------------------|---------------------------|
 Ab--8---------------------7-7-|-0--------------------------|-5--------------------------|-7-------------------------|
 Db--8---------------------7-7-|-0--------------------------|-5--------------------------|-7-------------------------|

[-------------------------------------------Repeat 4 times---]
 eb----------------------------|----------------------------|
 bb----------------------------|----------------------------|
 gb----------------------------|----------------------------|
 db----------------------------|----------------------------|
 Ab--0-----8---------7-2-3-2-3-|-0-----8---------7-2-3----3-|
 Db--0-0-0-8-0-0-0-0-7-2-3-2-3-|-0-0-0-8-0-0-0-0-7-2-3----3-|
       . .   . . . .   . . . .     . .   . . . .                
    last time. you do this
 eb----------------------------|----------------------------|
 bb----------------------------|----------------------------|
 gb----------------------------|----------------------------|
 db----------------------------|----------------------------|
 Ab--0-----8---------7-2-3-2-3-|-0-----8---------7-2-3------|
 Db--0-0-0-8-0-0-0-0-7-2-3-2-3-|-0-0-0-8-0-0-0-0-7-2-3------|
       . .   . . . .   . . . .     . .   . . . .
comments
print report bad tab
4 comments total. Showing first comments.
0 reply
lehcie wrote on November 11 2002, 12:00 am

I think your tab is pretty good, but the off rhythm part I think is off a little.

0 reply
rmwaters3000 wrote on January 21 2003, 12:00 am

This is the same as one I found in a guitar mag except your intro which is way off but I'm gonna give you good for being almost right.

0 reply
StreamLine wrote on January 30 2003, 12:00 am

surely it's obviously much easier to play 77xxxx in the intro at 5 string - x24xxx? this gives a nice n easy progression for the fingers

I want to post or [tab]
guest
You may want to rate the tab now too:
select rating
Please do not post tabs as comments. Select "correction" instead!