Oops, an error
Loading. Please wait.

Remember Tab

version 7
version 7
4,660 views 9 this week
no commentswrite comment
1 2 3 4 5
please rate
add to favorites
launch autoscroll
font size
0
reset
how to read this tab
guitar tuner
Autoscroll
slow
fast
+/-
esc
set tempo
stop
Help us to improve Ultimate-Guitar.com Take our survey!
×
Contributor
Difficulty
Tuning
intermediate
C# G# C# F# A# D#
this is one of my most favorite disturbed songs and i love playing it. this is my first 
so dont kill me if its not right

key
/ slide
x mute
* palm mute
~ sustained note
Intro

Eb|------------------------------------------------------------------|
Bb|------------------------------------------------------------------|
Gb|------------------------------------------------------------------| 2x
Db|------------------------------------------------------------------|
Ab|0~238~20237~03030~238~20237~03-30~238~20237~03030~238~20237002070~|
Db|0~238~20237~03030~238~20237~03-30~238~20237~03030~238~20237002070~|
     **  ****  ****  **  ****        **  ****  ****  **  **** ** * *
Verse 1A

Eb|----------------------------------------------------------------------|
Bb|----------------------------------------------------------------------|
Gb|----------------------------------------------------------------------|
Db|----------------------------------------------------------------------|
Ab|------13~-----12~--------------13~-----12-----13~-----12~-------------|
Db|0~1215---01215---012150150~1215---01215--01215---01215---012150150~12-|

Eb|------------------|
Bb|------------------|
Gb|------------------| 2x
Db|------------------|
Ab|--13~-----101010--|
Db|15---01215101010--|

Chorus

Eb|-----------------------------------------------------------------|
Bb|-----------------------------------------------------------------|
Gb|-5-------5-------5-------5-----------------------5------------77-|
Db|7-7533--7-7533--7-7533--7-7533--5533--3-5533----7-7533--335577---|
Ab|------53------53------53------53----53-5----5035------53---------|
Db|-----------------------------------------------------------------|

Eb|-----------------------------------------------------------------------|
Bb|666-666--66---666-666--66---8~10p8--------8~10p8-------10^10~~---------|
Gb|---5---55--5h7---7---77--5h7------107~5575------1012~10-------7^7~-----|
Db|------------------------------------------------------------------7^7~-|
Ab|-----------------------------------------------------------------------|
Db|-----------------------------------------------------------------------|

Eb|-------|
Bb|-------|
Gb|-------|
Db|-------|
Ab|^5re.5~
Db|-------

Verse 1B

okay here all you do is play verse 1a but when you play on the low Db string you palm 
except for when you play Ab|101010 and then the
                                              Db|101010
second time you play it you dont palm mute it. if you think this sounds confusing just 
me know and ill change it

Chorus . . .

Pre-Interlude

Eb|---------------------------------------------------------------|
Bb|---------------------------------------------------------------|
Gb|---------------------------------------------------------------|
Db|---------------------------------------------------------------|
Ab|8~8~xx8/121212~5~3330~0~0~0~03~0~8~8~xx8/121212~5~3330~0~0~0~0~|
Db|8~8~xx8/121212~5~3330~0~0~0~03~0~8~8~xx8/121212~5~3330~0~0~0~0~|

Eb|-------------------------------------------------------------|
Bb|-------------------------------------------------------------|
Gb|-------------------------------------------------------------|
Db|-------------------------------------------------------------|
Ab|8~8~xx8/121212~5~3330~0~0~0~03~0~5~5~5~5~55~3~3~3~3~33~------|
Db|8~8~xx8/121212~5~3330~0~0~0~03~0~5~5~5~5~55~3~3~3~3~33~1/12\1|

Interlude

Eb|----------------------------------------------------------------|
Bb|----------------------------------------------------------------|
Gb|----------------------------------------------------------------|
Db|----33----22--------33----22--------33----22--------33----2-----|
Ab|002311202300030300231120230003030023112023000303002311202303-3-3|
Db|0023--2023--03030023--2023--03030023--2023--03030023--2023-3-3-3|
   ****  ****  ********  ****  ********  ****  ********  ****

Chorus...
but this time the second time you play it there is an octave layer so ill tab that

Eb|----------------------------------|
Bb|----------------------------------|
Gb|--14--------------14--------------| 2x
Db|16--16141212----16--16141212------|
Ab|------------1412------------1412--|
Db|----------------------------------|

Eb|---------------------------------------------------------------|
Bb|---------------------------------------------------------------|
Gb|--------------------------------14------------------------1616-|
Db|14141212-------14141212-------16--16141212----121214141616-----|
Ab|--------1491214--------1491214------------1412-----------------|
Db|---------------------------------------------------------------|

Eb|---------------------------------------------------------|
Bb|151515---151515----1515-----151515---151515----1515------|
Gb|------14~------1414----14h16------16~------1616----14h16-|
Db|---------------------------------------------------------|
Ab|---------------------------------------------------------|
Db|---------------------------------------------------------|

Eb|------------------------------------------------------------------|gradually increase
Bb|18~20p18--------------18~20p18-------20^20~~~~~12^----------------|
Gb|--------1815~10~101510--------1820~18----------12^----------------|
Db|------------------------------------------------------------------|
Ab|------------------------------------------------------------------|
Db|------------------------------------------------------------------|

Eb|---------------------------------|
Bb|---------------------------------|
Gb|---------------------------------| repeat untill end
Db|---------------------------------|
Ab|0238~20237~03030~238~20237~03-30~|
Db|0238~20237~03030~238~20237~03-30~|

well thats it i hope is ok and please subscribe so ill know what to fix in my future tabs. peace
Suggest correction What's this?
You can suggest a correction to this tab. Community and Mods will review your correction and vote to approve or reject it.
comments
We did not receive enough feedback on this tab! Please rate:
print report bad tab
1 2 3 4 5
I want to post or [tab]
guest
You may want to rate the tab now too:
select rating
Please do not post tabs as comments. Select "correction" instead!