Oops, an error
Loading. Please wait.

Remnants Acoustic Tab

1,486 views 1 this week
1 commentread comment
1 2 3 4 5
x 5
add to favorites
launch autoscroll
font size
0
reset
how to read this tab
guitar tuner
×
Best way to learn
"Remnants Acoustic"
Autoscroll
slow
fast
+/-
esc
set tempo
stop
Author
Difficulty
Tuning
novice
D# G# C# F# A# D#
This is the Acoustic Part to the intro of this song. Did it by ear and im 99.9% positive 
it is correct. No Joke. Let me know what you think.





Eb|-------------------------------------0-----------------------|
Bb|-----------------------0---------------0---------------------|
F#|---------0-----------0---0---0-----0-----0---------0---------|
C#|-------2---2---2---2-------2-----2---------2-----3---2---2---|  x10
Ab|-----2-------2---3-----------------------------3-------2-----|
Eb|---0---------------------------0-------------0---------------|
Suggest correction
comments
print report bad tab
1 comment total.
0 reply
007ninja56 49 Apr 11, 2017 06:02 PM

You got the first part right, but the rest should be:
Eb|----------0-----------------------
Bb|------------0----------------------
F#|--------0-----0---------0----------
C#|------2---------2-----3----3---3---
Ab|--------------------3--------3-----
Eb|---2--------------1----------------

guest
You may want to rate the tab now too:
select rating
Wanna post a correction for this tab? Suggest correction