Oops, an error
Loading. Please wait.

Remnants Tab

version 4
version 4

Interactive

13,835 views 36 this week
5 commentsread comments
1 2 3 4 5
excellent!
x 6
add to favorites
launch autoscroll
font size
0
reset
how to read this tab
guitar tuner
Tab Pro tools
  • play this tab
  • loop segment
  • change instrument
  • show fretboard
  • metronome
×
Best way to learn
"Remnants"
Autoscroll
slow
fast
+/-
esc
set tempo
stop
Contributor
Difficulty
intermediate
#----------------------------------PLEASE NOTE---------------------------------#
#This file is the author's own work and represents their interpretation of the #
#song. You may only use this file for private study, scholarship, or research. #
#------------------------------------------------------------------------------#

REMNANTS
As recorded by Disturbed
(From the 2010 Album ASYLUM)




 Words and Music by Disturbed

 

Gtr I (Eb Ab Db Gb Bb Eb) - 'Dan Donegan (Rhy 1/Acoustic)'
Gtr II (Eb Ab Db Gb Bb Eb) - 'Dan Donegan (Rhy. 2/Dist.)'
Gtr III (Eb Ab Db Gb Bb Eb) - 'Dan Donegan (Solo)'


   Intro
    Moderately Slow Rock Q=104
    Em               Cmaj7               Em/F#            Fsus2
   4/4
    Gtr I
    Q  E E E E E E   E E E E +E  E E E   Q  E E E E E E   E E E E +E  E E E
||-----------------|-------------------|--------0-------|---------------------||
||o----------------|-------0-(0)-------|----------0-----|--------------------o||
||---------0-------|-----0-------0---0-|------0-----0---|-------0-(0)---------||
||-------2---2---2-|---2-----------2---|----2---------2-|-----3-------3---3---||
||o----2-------2---|-3-----------------|----------------|---3-----------3----o||
||--0--------------|-------------------|-2--------------|-1-------------------||


 Guitar Solo
  Em                Cmaj7
  Gtrs I, II
   Q  E E E E E E   E     E E E     +E  E E E
|-----------------|---------------------------|
|-----------------|-----------0-----(0)-------|
|---------0-------|---------0-----------0---0-|
|-------2---2---2-|-------2---------------2---|
|-----2-------2---|-3-------------------------|
|--0--------------|---------------------------|
|
| Gtr III
|  ~~               T         T
|  W                Q.        E     +H
|-----------------|---------------------------|
|-----------------|---------------------------|
|-----------------|---------------------------|
|-----------------|---------------------------|
|-/7--------------|-7(19)-----7(14)-(7)-------|
|-----------------|---------------------------|


  Em/F#                    Fsus2
  Q      E E E E  E   E      E   E E  E   +E   E  E  E
|------------0-----------|-----------------------------|
|--------------0---------|-----------------------------|
|----------0------0------|------------0---(0)----------|
|--------2------------2--|---------3-----------3-----3-|
|------------------------|-------3----------------3----|
|-2----------------------|---1-------------------------|
|
| T
| H.              E   E     +Q.       E   +Q      Q
|----------------<5>-----|-----------------------------|
|--------------------<5>-|-(<5>)-----<7>-(<7>)---------|
|------------------------|-----------------------<7>---|
|------------------------|-----------------------------|
|-7(12)------------------|-----------------------------|
|------------------------|-----------------------------|


                                Cmaj7
    Q      E E E    E  E    E   E E E  E      +E    E     E  E
|-----------------------------|--------------------------------|
|-----------------------------|--------0------(0)--------------|
|--------------0--------------|-----0---------------0--------0-|
|------------2------2-------2-|---2-----------------------2----|
|----------2-----------2------|-3------------------------------|
|---0-------------------------|--------------------------------|
|
|              ~~~~~                   ~~~~~~~~~~~~
|  +E    E E E Q      +S  S E   E E E  E      +E   +S  S  E  E
|-----------------------------|--------------------------------|
|-----------------------------|-------10b12==(10)r(10)p8-10----|
|-(<7>)----7-9-9b10r==(9)p7---|-7-9-7-----------------------12-|
|-------/9------------------9-|--------------------------------|
|-----------------------------|--------------------------------|
|-----------------------------|--------------------------------|


  Em/F#                      Fsus2
   Q  E E   E     E  E   E     E  E E   E    +E  E E  E
|-----------0--------------|------------------------------|
|-----------------0--------|------------------------------|
|-------0------------0-----|------------0----(0)----------|
|-----2------------------2-|--------3------------3----3---|
|--------------------------|------3----------------3------|
|--2-----------------------|---1--------------------------|
|
|  ~~                    ~~~~~~~~~            ~~~~~~~~~~
|  H       +E     E  E   E    +Q.      +E     Q.      E
|--------------------------|------------------------------|
|----------------------/10-|-(10)-----(10)\-/12------15---|
|-11------(11)\-/12-11-----|------------------------------|
|--------------------------|------------------------------|
|--------------------------|------------------------------|
|--------------------------|------------------------------|


  Em                                      Cmaj7
    Q       E  E  E      E      E     E    E     E   E   E  +E    E  E  E
|---------------------------------------|-------------------------------------|
|---------------------------------------|----------------0--(0)---------------|
|-----------------0---------------------|------------0------------0-----0-----|
|--------------2---------2------------2-|--------2-------------------2--------|
|-----------2-------------------2-------|--3----------------------------------|
|---0-----------------------------------|-------------------------------------|
|
|                                                        ~~~~~~~
|  +E    E  E  E  E     +S   S  S  S  E    Q        +E   E  +E    E  E  E
|----------14-15-15b17r(15)p14-15p14----|-------------------------------------|
|-(15)-/15---------------------------15-|-------------------------------------|
|---------------------------------------|-14pb16r==(14)-12-(12)-----12-14b16==|
|---------------------------------------|-----------------------/14-----------|
|---------------------------------------|-------------------------------------|
|---------------------------------------|-------------------------------------|


  Em/F#                              Fsus2
    Q      E  E      E   E E  E        E   E     E E  +E   E E   E
|--------------------0-------------|----------------------------------|
|------------------------0---------|----------------------------------|
|-------------0------------0-------|---------------0--(0)-------------|
|----------2------------------2----|-------------3---------3-----3----|
|----------------------------------|-------3-----------------3--------|
|---2------------------------------|---1------------------------------|
|
|                                                ~~        ~~
|  +E   E  E.    S  +E   Q    E       +E   E     Q    +E   Q    +E
|----------------------------------|----------------------------------|
|------15-15-----------------15b17-|-(15)-15b17-15---(15)-15---(15)\--|
|-(14)----14----14r(14)-12---------|----------------------------------|
|----------------------------------|----------------------------------|
|----------------------------------|----------------------------------|
|----------------------------------|----------------------------------|


  Em
   Q           E     E     E     E     E     E
|-------------------------------------------------|
|-------------------------------------------------|
|--------------------------0----------------------|
|--------------------2-----------2-----------2----|
|--------------2-----------------------2----------|
|--0----------------------------------------------|
|
|           PM---|            PM---|            PM
|  S  S  S  S  S  S  S  S  S  S  S  S  S  S  S  S
|-------------------------------------------------|
|-------------------------------------------------|
|-11-12-11----------11-12-11----------11-12-11----|
|----------14-12-14----------14-12-14----------14-|
|-------------------------------------------------|
|-------------------------------------------------|


  Cmaj7
   E     E     E     E    +E      E     E     E
|--------------------------------------------------|
|--------------------0----(0)----------------------|
|--------------0------------------0-----------0----|
|--------2------------------------------2----------|
|--3-----------------------------------------------|
|--------------------------------------------------|
|
|           PM---|             PM---|            PM
|  S  S  S  S  S  S  S  S  S   S  S  S  S  S  S  S
|--------------------------------------------------|
|--------------------------------------------------|
|-11-12-11----------11-12-11-----------11-12-11----|
|----------14-12-14-----------14-12-14----------14-|
|--------------------------------------------------|
|--------------------------------------------------|


  Em/F#                                             Fsus2
   Q           E     E     E     E     E     E       E E  E  E  +E  E      E E
|--------------------------0----------------------|----------------------------|
|--------------------------------0----------------|----------------------------|
|--------------------0-----------------0----------|----------0--(0)------------|
|--------------2-----------------------------2----|-------3---------3--------3-|
|-------------------------------------------------|----3-------------------3---|
|--2----------------------------------------------|--1-------------------------|
|
|           PM---|            PM---|            PM   ~~~~~~~~~~~~~~~       ~
|  S  S  S  S  S  S  S  S  S  S  S  S  S  S  S  S    Q    E  E  +Q      a  Q
|-------------------------------------------------|----------------------------|
|-10-12-10----------10-12-10----------10-12-10----|----------------------------|
|----------12-11-12----------12-11-12----------12-|-10---10-10-(10)---(10)s7---|
|-------------------------------------------------|----------------------------|
|-------------------------------------------------|----------------------------|
|-------------------------------------------------|----------------------------|


  Em                         Cmaj7
   Q   E  E      E  E  E E    E  E E  E     +E  E E  E
|--------------------------|------------------------------|
|--------------------------|----------0-----(0)-----------|
|----------------0---------|-------0------------0----0----|
|---------2---------2----2-|-----2----------------2-------|
|------2---------------2---|--3---------------------------|
|--0-----------------------|------------------------------|
|
|                                            ~~~~
|  Q.     E     +Q     Q      Q.      E     +Q.      S  S
|--------------------------|------------------------------|
|--------------------------|---------15b17-(15)-----15-13-|
|-13-----13b14-(13)---13---|-12---------------------------|
|--------------------------|------------------------------|
|--------------------------|------------------------------|
|--------------------------|------------------------------|


  Em/F#                            Fsus2
   Q        E E   E      E  E  E    E  E    E  E  +E   E   E  E
|-----------------0--------------|-------------------------------|
|------------------------0-------|-------------------------------|
|-------------0-------------0----|-------------0--(0)------------|
|-----------2------------------2-|----------3----------3------3--|
|--------------------------------|-----3-------------------3-----|
|--2-----------------------------|--1----------------------------|
|
|        ~~~                                   ~~
|                 |-3-|
|  S  S  Q.      +E   S  E  E  E    E  Q       E  +E   E   E  E
|--------------------------------|-------------------------------|
|-12-----------------------------|-------------------------------|
|----12--------------------------|----14b16---14-(14)-12-----12--|
|-------14------(14)-12----12-14-|-12--------------------/14-----|
|-----------------------14-------|-------------------------------|
|--------------------------------|-------------------------------|


  Em                              Cmaj7
   Q     E  E   E   E  E  E         E   E  E      E  +E   E  E  E
|-------------------------------|---------------------------------|
|-------------------------------|-----------------0--(0)----------|
|---------------0---------------|----------0--------------0-----0-|
|-----------2-------2-----2-----|-------2--------------------2----|
|--------2-------------2--------|---3-----------------------------|
|--0----------------------------|---------------------------------|
|
|                                   ~~~~~~~~~~~~~     ~~~
|  Q.       E  +E   E  E  E        +Q      E     +E   E   E  E  E
|-15b17----15-(15)-12----17b19==|=(17)r---17b19r(17)-17--15----15-|
|---------------------15--------|---------------------------17----|
|-------------------------------|---------------------------------|
|-------------------------------|---------------------------------|
|-------------------------------|---------------------------------|
|-------------------------------|---------------------------------|


  Em/F#                             Fsus2
    Q         E E   E   E E  E       E     E     E     E    +E      E     E     E
|-------------------0-------------|------------------------------------------------|
|-----------------------0---------|------------------------------------------------|
|---------------0---------0-------|--------------------0----(0)--------------------|
|-------------2--------------2----|--------------3------------------3-----------3--|
|---------------------------------|--------3------------------------------3--------|
|---2-----------------------------|--1---------------------------------------------|
|
|                                                                               ~~
|  +E   Q.         +Q.       S  S    S  S  S  S  S  S  S  S  S   S  S  S  S  S  E
|-(15)-22b24======(22)r-----22-20-|----19-17----------19-22-19--------19-----------|
|---------------------------------|-22-------20-17-20-----------22-22----22-20-----|
|---------------------------------|------------------------------------------------|
|---------------------------------|--------------------------------------------19--|
|---------------------------------|------------------------------------------------|
|---------------------------------|------------------------------------------------|


  Em                        Cmaj7
   Q     E  E  E  E  E  E    E  E  E  E +E   E  E  E
|-------------------------|--------------------------|
|-------------------------|-----------0-(0)----------|
|--------------0----------|--------0---------0-----0-|
|-----------2-----2-----2-|-----2---------------2----|
|--------2-----------2----|--3-----------------------|
|--0----------------------|--------------------------|
|
|  E  E  E  E  E  E  E  E    E  E  E  E  E   E  E  E
|----------15----17----15-|--------------------------|
|----17-19----------------|----19----17--------17-19-|
|-16----------16----16----|-16----16----16--19-------|
|-------------------------|--------------------------|
|-------------------------|--------------------------|
|-------------------------|--------------------------|


  Em/F#                            Fsus2
   Q       E  E     E E  E     E     E     E  E  E +E      E  E   E
|-------------------0------------|--------------------------------------------|
|---------------------0----------|--------------------------------------------|
|-------------0----------0-------|---------------0-(0)------------------------|
|----------2-------------------2-|------------3------------3------3-----------|
|--------------------------------|---------3------------------3---------------|
|--2-----------------------------|---1----------------------------------------|
|
|        ~~         ~~         ~~~~~~~~~~
|                                                                 |---3----|
|  S  S  Q    S  S  Q    S  S  E    +E     E  E  E  e      e  e  +S   +S   S
|--------------------------------|--------------------------------------------|
|-17s19s17-----------------------|-----------------15-----15-15---------------|
|------------16s19s16------------|-----------12-14-14b15==14-14-(14)r(14)p12--|
|-----------------------17s19s17-|-(17)\-/14----------------------------------|
|--------------------------------|--------------------------------------------|
|--------------------------------|--------------------------------------------|


  Em                Cmaj7
   Q  E E E E E E     E  E E E +E  E E E
|-----------------|----------------------|
|-----------------|----------0-(0)-------|
|---------0-------|--------0-------0---0-|
|-------2---2---2-|------2-----------2---|
|-----2-------2---|---3------------------|
|--0--------------|----------------------|
|
|  ~~~~~~~~~~~~~~~~~~~~~~~~~~~~~~~~~~~~~~~
|  W                 +W
|-----------------|----------------------|
|-----------------|----------------------|
|-----------------|----------------------|
|-14--------------|-(14)-----------------|
|-----------------|----------------------|
|-----------------|----------------------|


  H.=H
  Em/F#                  Fsus2
    Q     E  E E E E E     E  E E E +E  E E E
|--------------0-------|----------------------||
|----------------0-----|----------------------||
|------------0-----0---|----------0-(0)-------||
|---------2----------2-|--------3-------3---3-||
|----------------------|------3-----------3---||
|---2------------------|---1------------------||
|
|   <
|~~~~~~~~~~~~~~~~~~~~~~~~~~~~~
|   Q    +H.              +W
|----------------------|----------------------||
|--17---(17)-----------|-(17)-----------------||
|----------------------|----------------------||
|-(14)--(14)-----------|-(14)-----------------||
|----------------------|----------------------||
|----------------------|----------------------||



--------------------------------------------------------------------------------


Duration Legend
---------------
W - whole; H - half; Q - quarter; E - 8th; S - 16th; T - 32nd; X - 64th; a - acciaccatura
+ - note tied to previous; . - note dotted; .. - note double dotted
Uncapitalized letters represent notes that are staccato (1/2 duration)
Irregular groupings are notated above the duration line
Duration letters will always appear directly above the note/fret number it represents the
duration for.  Duration letters with no fret number below them represent rests.  Multi-
bar rests are notated in the form Wxn, where n is the number of bars to rest for.  Low
melody durations appear below the staff

Tablature Legend
----------------
 h   - hammer-on
 p   - pull-off
 b   - bend
 pb  - pre-bend
 r   - bend release (if no number after the r, then release immediately)
 /\  - slide into or out of (from/to "nowhere")
 s   - legato slide
 S   - shift slide
 - natural harmonic
[n]  - artificial harmonic
n(n) - tapped harmonic
 ~   - vibrato
 tr  - trill
 T   - tap
 TP  - trem. picking
 PM  - palm muting
\n/  - tremolo bar dip; n = amount to dip
 \n  - tremolo bar down
 n/  - tremolo bar up
/n\  - tremolo bar inverted dip
 =   - hold bend; also acts as connecting device for hammers/pulls
 <> - volume swell (louder/softer)
 x   - on rhythm slash represents muted slash
 o   - on rhythm slash represents single note slash

Misc Legend
-----------
 |  - bar
||  - double bar
||o - repeat start
o|| - repeat end
*|  - double bar (ending)
 :  - bar (freetime)
 $  - Segno
 &  - Coda
Tempo markers -  = BPM(8/16=s8/s16), where s8 = swing 8ths, s16 = swing 16ths

comments
print report bad tab
5 comments total. Showing first comments. show 1 bad comment
+1 reply
EliteBouncer wrote on September 13 2010, 09:51 am

i don't see the point in a 2nd Rhythm guitar which is disorted
I'll let that pass good work

+1 reply
slash.r0cks wrote on September 14 2010, 06:57 am

I did it to layer the rhythm because it sounded a tad distorted. Glad you liked it though. :D

I want to post or [tab]
guest
You may want to rate the tab now too:
select rating
Please do not post tabs as comments. Select "correction" instead!