Oops, an error
Loading. Please wait.

Rise Tab

version 3
version 3

Whole song

Interactive

1,775 views 1 this week
no commentswrite comment
1 2 3 4 5
please rate
add to favorites
launch autoscroll
font size
0
reset
how to read this tab
guitar tuner
Autoscroll
slow
fast
+/-
esc
set tempo
stop
Help us to improve Ultimate-Guitar.com Take our survey!
×
Band- Disturbed
Album- Believe
Song- Rise
Tuning- Tune down 1/2 step:Drop D

Intro

|-------------------------|-------------------------------------------|
|-------------------------|-------------------------------------------|
|---------x3--------------|-------------------------------------------|
|-------------------------|-------------------------------------------|
|-10h12-12-12-12-10h12-12-|-10h12-12-12-12-12-6-6-6-15-15-15-10-10-10-|
|-10h12-12-12-12-10h12-12-|-10h12-12-12-12-12-6-6-6-15-15-15-10-10-10-|

Verse

|-------------------------|-------------------------------------------|
|-------------------------|-------------------------------------------|
|--------x3---------------|-------------------------------------------|
|-------------------------|-------------------------------------------|
|-------------------------|-------------------------------------------|
|-10h12-12-12-12-10h12-12-|-10h12-12-12-12-12-6-6-6-15-15-15-10-10-10-|

Pre-Chorus/Palm Muted

|-----------------|
|---------x4------|
|-----------------|
|-0-0-0-0---0-0-0-|
|-0-0-0-0---0-0-0-|
|-0-0-0-0---0-0-0-|

Chorus

|----------------------------------------------------|
|----------------------------------------------------|
|-7-10-10-10-7-10-10-10-7-10-10-10-------------------|
|-7-10-10-10-7-10-10-10-7-10-10-10-7-------------7-5-|
|-5-8--8--8--5-8--8--8--5-8--8--8--7-7-7-7-7-7-7-7-5-|
|----------------------------------7-7-7-7-7-7-7-7-5-|
P.M.                                 ...........

|-----------------------------------------------------|
|-----------------------------------------------------|
|-7-10-10-10-7-10-10-10-7-10-10-10--------------------|
|-7-10-10-10-7-10-10-10-7-10-10-10-7-------------7-10-|
|-5-8--8--8--5-8--8--8--5-8--8--8--7-7-7-7-7-7-7-7-10-|
|----------------------------------7-7-7-7-7-7-7-7-10-|
P.M.                                 ...........

Post-Chorus

|-------------------------------------------------------------------------|
|-------------------------------------------------------------------------|
|-------------------------------------------------------------------------|
|----------------------12----------------------------------------------12-|
|-12-10-12-10-12-10-12----12-10-12-10-12-10-12----12-10-12-10-12-10-12----|
|-8-----------12----------8-----------12-------12-8-----------12----------|

|-------------------------|
|-------------------------|
|-------------------------|
|-3-3-3-3-3-3-8-8-8-8-8-8-|
|-3-3-3-3-3-3-8-8-8-8-8-8-|
|-3-3-3-3-3-3-8-8-8-8-8-8-|
P.M..........

Bridge/Palm Muted

|-------------------------------------|
|-------------------------------------|
|-------------------------------------|
|-------------------------------------|
|-------------------------------------|
|-0-0-3-1-0-0-1-3-0-0-3-1-1-1-0-1-3-0-|

Heavy Bridge/Not Palm Muted

|-------------------------------------|
|-------------------------------------|
|-------------------------------------|
|-------------------------------------|
|-------------------------------------|
|-0-0-3-1-0-0-1-3-0-0-3-1-1-1-0-1-3-0-|

Dan plays the fill and the post-chorus after this then he plays these little riffs.

Riff 1

|-----------------------------------------------------------|
|-----------------------------------------------------------|
|-----------------------------------------------------------|
|-----------------------------------------------------------|
|-8-8-8-8-8-8-8-0-0-0-0-0-0-0-0-3-3-3-3-3-3-3-3-8-8-8-8-8-8-|
|-8-8-8-8-8-8-8-0-0-0-0-0-0-0-0-3-3-3-3-3-3-3-3-8-8-8-8-8-8-|
P.M............................................

He ends the song by playing the intro again. Then to end the song he slides from the
fifteenth fret on the top string like this.

|---------|
|---------|
|---------|
|---------|
|---------|
|---15\---|

ENJOY!!!!!!
Suggest correction
Give kudos to tab author, rate the tab!
1 2 3 4 5
comments
print report bad tab
guest
You may want to rate the tab now too:
select rating
Please do not post tabs as comments. Select "correction" instead!