Oops, an error
Loading. Please wait.

Serpentine Tab

version 2
version 2

Whole song

Interactive

1,123 views 1 this week
1 commentread comment
1 2 3 4 5
accurate
x 3
add to favorites
launch autoscroll
font size
0
reset
how to read this tab
guitar tuner
Autoscroll
slow
fast
+/-
esc
set tempo
stop
Help us to improve Ultimate-Guitar.com Take our survey!
×
Author
Difficulty
Tuning
intermediate
C G C F A D
There are obviously 2 guitars. This might be a mixture of both, i just
tabbed what sounded best to me.
This also requires a tiny amount of note-reading knowledge.
The -o-| means repeat the line. If there was a |-o- before,
repeat from there.
Key:
. Below Tabs : Palm mute
/ Below Tabs : Open Wha-Pedal
\ Below Tabs : Close Wha-Pedal

>>> Intro <<<
D|------------------------------------------------------------------------|
A|o-----------------------------------------------------------------------|
F|--9-9-9-9-9-9-7-7-7-7-7-7-9-9-9-9-10-10-10-10-10-10-9-9-9-9-9-9---------|
C|------------------------------------------------------------------------|
G|o-7-7-7-7-7-7-5-5-5-5-5-5-7-7-7-7-8--8--8--8--8--8--7-7-7-7-7-7---------|
C|------------------------------------------------------------------------|

D|------------------------------------------------------------------------|
A|------------------------------------------------------------------------|
F|-10-10-10-10-12-12-12-12-12-12-14-14-14-14-14-17-17-17-7-7-7-7-7-7-7-7--|
C|------------------------------------------------------------------------|
G|-8--8--8--8--14-14-14-14-14-14-13-13-13-13-15-15-15-15-5-5-5-5-5-5-5-5--|
C|------------------------------------------------------------------------|

A|------------------|-----------------------------------------------------|
A|-----------------o|-----------------------------------------------------|
F|-7-7-7-7-7-7-7-7--|-----------------------------------------------------|
C|------------------|-0~--------------------------------------------------|
G|-5-5-5-5-5-5-5-5-o|-0~--------------------------------------------------|
C|------------------|-0~--------------------------------------------------|


>>> Verse <<< In the 2nd Verse, play G|-5h7-| at the end instead.

D|-----------------|---|--------------------------------------------------|
A|----------------o|x4-|o-------------------------------------------------|
F|-----------------|---|--------------------------------------------------|
C|-----------------|---|--8-8-8-8-8-8-8-8-8-8-8-8-8-8-8-8-5-5-5-5-5-5-5-5-|
G|-9p8--8-8-8-7p5-o|x4-|o-8-8-8-8-8-8-8-8-8-8-8-8-8-8-8-8-5-5-5-5-5-5-5-5-|
C|-----------------|---|--8-8-8-8-8-8-8-8-8-8-8-8-8-8-8-8-5-5-5-5-5-5-5-5-|

D|------------------|-----------------------------------------------------|
A|-----------------o|-----------------------------------------------------|
F|------------------|-----------------------------------------------------|
C|-5-5-5-5-5-5-5-5--|-----------------------------------------------------|
G|-5-5-5-5-5-5-5-5-o|-----------------------------------------------------|
C|-5-5-5-5-5-5-5-5--|-----------------------------------------------------|


>>> Refrain <<<
D|------------------------------------------------------------------------|
A|------------------------------------------------------------------------|
F|------------------------------------------------------------------------|
C|-0---------0h8-----0h5\3-0-5\3/5-\3/5/7--------8--0----------8-----5----|
G|-0-0-0-0-0-0h8-0-0-0h5\3-0-3\1/3-\1/3/5--0-0-0-8--0-0-0-0-0--8-0-0-5----|
C|-0-0-0-0-0-0h8-0-0-0h5\3-0---------------0-0-0-8--0-0-0-0-0--8-0-0-5----|
     . . . .     . .       .               . . .      . . . .    . .

D|------------------------------------------------------------------------|
A|------------------------------------------------------------------------|
F|------------------------------------------------------------------------|
C|-----6-----5---------3---------3p0h1---------8-----5---------5\3/5\3----|
G|-0-0-6-0-0-5-0-0-0-0-3-0-0-0-0-3p0h1-0-0-0-0-8-0-0-5-0-0-0-0-5\3/5\3----|
C|-0-0-6-0-0-5-0-0-0-0-3-0-0-0-0-3p0h1-0-0-0-0-8-0-0-5-0-0-0-0-5\3/5\3----|
   . .   . .   . . . .   . . . .       . . . .   . .   . . . .

D|------------------------------------------------------------------------|
A|------------------------------------------------------------------------|
F|------------------------------------------------------------------------|
C|-3/5/8--8-8-8-8-8-8-----------------------------------------------------|
G|-3/5/8--8-8-8-8-8-8-0-0-0-0-0-0-0-0-0-0-0-0-0-0-0-0-6\5-0-0-0-0-0-0-4\3-|
C|-3/5/8--8-8-8-8-8-8-0-0-0-0-0-0-0-0-0-0-0-0-0-0-0-0-6\5-0-0-0-0-0-0-4\3-|
                      . . . . . . . . . . . . . . . .     . . . . . .

D|-----------------|  Then Verse 2 (whis is the      D|-------------------|
A|-----------------|  same as 1) with silence        A|-------------------|
F|-----------------|  and the first Part is pl-      F|-------------------|
C|-----------------|  ayed twice with the G|-5h7-|   C|-0~----------------|
G|-0-0-0-0-0-0-0-0-|  the 4th time instead.          G|-0~----------------|
C|-0-0-0-0-0-0-0-0-|                                 C|-0~----------------|
   . . . . . . . .

>>> Bridge <<<
D|--|------10-------------10----------|---------10------------------------|
A|o-|o-------------------------------o|----------------------------------o|
F|--|---------------------------------|-----------------------------------|
C|--|---------------------------------|-----------------------------------|
G|o-|o-8-5----8-5h8p5-7-5----8-5h8p5-o|-5-3-8-5----8-5h8p5-7-5---8-5h8p5-o|
C|--|---------------------------------|-----------------------------------|
                 / \            / \                   / \           / \
  1st______________________________ 2nd____________________________________
 |                                 |
D|---------------------------------|-|------------------------------------|
A|---------------------------------|-|o-----------------------------------|
F|---------------------------------|-|------------------------------------|
C|-7-7-7-7-7-7-7-7-7-7-7-7-5-5-5-5-|-|--8-8-8-8-8-8-8-8-8-8-8-8-8-8-8-8---|
G|-7-7-7-7-7-7-7-7-7-7-7-7-5-5-5-5-|-|o-8-8-8-8-8-8-8-8-8-8-8-8-8-8-8-8---|
C|-7-7-7-7-7-7-7-7-7-7-7-7-5-5-5-5-|-|--8-8-8-8-8-8-8-8-8-8-8-8-8-8-8-8---|

______________________________________
                                      |
D|----------------------------------|-|  Play the Chorus and    D|--------|
A|---------------------------------o|-|  then the intro again.  A|--------|
F|----------------------------------|-|  Then end the song      F|--------|
C|-5-5-5-5-5-5-5-5-5-5-5-5-5-5-5-5--|-|  like this:             C|-0~-----|
G|-5-5-5-5-5-5-5-5-5-5-5-5-5-5-5-5-o|-|                         G|-0~-----|
C|-5-5-5-5-5-5-5-5-5-5-5-5-5-5-5-5--|-|                         C|-0~-----|
Suggest correction
What's this?
You can suggest a correction to this tab. Community and Mods will review your correction and vote to approve or reject it.
comments
We did not receive enough feedback on this tab! Please rate:
print report bad tab
1 2 3 4 5
1 comment total.
+1 reply
JimBonJovi 1,871 wrote on May 13 2013, 05:39 pm

Superb! Thank you.

guest
You may want to rate the tab now too:
select rating
Please do not post tabs as comments. Select "correction" instead!