Oops, an error
Loading. Please wait.

Shout 2000 Tab

version 3
version 3

Whole song

Interactive

2,402 views 3 this week
no commentswrite comment
1 2 3 4 5
please rate
add to favorites
launch autoscroll
font size
0
reset
how to read this tab
guitar tuner
Autoscroll
slow
fast
+/-
esc
set tempo
stop
Help us to improve Ultimate-Guitar.com Take our survey!
×
Author
Shout 2000-Disturbed
Tabbed by: DisturbedIbanez

Tuning: Drop D, Down 1/2 step


Not too many versions od this song on here. Most of which are innacurate. Hopefully this
will help. Please rate There are alot of electronics and synth. in this song. All of this
tab is modified for the guitar, such as the solo.
Intro/Chorus 2x

|--------------------------------------------------------------------|
|--------------------------------------------------------------------|
|--------------------------------------------------------------------|
|-7--------------------------------7---------------------------------|
|-7---7-7-7-7-7---7-7---7-7---7-7--7---7-7-7-7-7---7-7---7-7---7-7---|
|-7---7-7-7-7-7---7-7---7-7---7-7--7---7-7-7-7-7---7-7---7-7---7-7---|
PM    ...........................      ...........................

|--------------------------------------------------------------------|
|--------------------------------------------------------------------|
|--------------------------------------------------------------------|
|-3--------------------------------3---------------------------------|
|-3---3-3-3-3-3---3-3---3-3---3-3--3---3-3-3-3-3---3-3---3-3---3-3---|
|-3---3-3-3-3-3---3-3---3-3---3-3--3---3-3-3-3-3---3-3---3-3---3-3---|
PM    ...........................      ...........................

|--------------------------------------------------------------------|
|--------------------------------------------------------------------|
|--------------------------------------------------------------------|
|--------------------------------------------------------------------|
|-0---0-0---0-0---0-0---0-0---0-0-0----0-0---0-0---0-0---0-0---0-0---|
|-0---0-0---0-0---0-0---0-0---0-0-0----0-0---0-0---0-0---0-0---0-0---|
PM................................................................  

|--------------------------------------------------------------------|
|--------------------------------------------------------------------|
|--------------------------------------------------------------------|
|-7--------------------------------7---------------------------------|
|-7---7-7-7-7-7---7-7---7-7---7-7--7---7-7-7-7-7---7-7---7-7---7-7---|
|-7---7-7-7-7-7---7-7---7-7---7-7--7---7-7-7-7-7---7-7---7-7---7-7---|
PM    ...........................      ...........................

Verse 4x
|--------------------------------------------------------------------|
|--------------------------------------------------------------------|
|--------------------------------------------------------------------|
|-7------7---7----------------------7------7---7---------------------|
|-5------5---5----------------------5------5---5---------------------|
|-5------7---4----------------------7------7---5---------------------|


|--------------------------------------------------------------------|
|--------------------------------------------------------------------|
|--------------------------------------------------------------------| 
|-7-7-7-7----7-7-7-7-----7--x-x---7-7-7-7---7-7-7-7---7--x-x---------|
|-5-5-5-5----5-5-5-5-----5--x-x---5-5-5-5---5-5-5-5---5--x-x---------|
|-7-7-7-7----7-7-7-7-----7--x-x---7-7-7-7---7-7-7-7---7--x-x---------|

Chorus (same as intro) 1x

Verse 2x

Chorus w/ different ending 1x
|--------------------------------------------------------------------|
|--------------------------------------------------------------------|
|--------------------------------------------------------------------|
|-7--------------------------------7---------------------------------|
|-7---7-7-7-7-7---7-7---7-7---7-7--7---7-7-7-7-7---7-7---7-7---7-7---|
|-7---7-7-7-7-7---7-7---7-7---7-7--7---7-7-7-7-7---7-7---7-7---7-7---|
PM    ...........................      ...........................

|--------------------------------------------------------------------|
|--------------------------------------------------------------------|
|--------------------------------------------------------------------|
|-3--------------------------------3---------------------------------|
|-3---3-3-3-3-3---3-3---3-3---3-3--3---3-3-3-3-3---3-3---3-3---3-3---|
|-3---3-3-3-3-3---3-3---3-3---3-3--3---3-3-3-3-3---3-3---3-3---3-3---|
PM    ...........................      ...........................

|--------------------------------------------------------------------|
|--------------------------------------------------------------------|
|--------------------------------------------------------------------|
|--------------------------------------------------------------------|
|-0---0-0---0-0---0-0---0-0---0-0-0----0-0---0-0---0-0---0-0---0-----|
|-0---0-0---0-0---0-0---0-0---0-0-0----0-0---0-0---0-0---0-0---0-----|
PM................................................................ 

Interlude Riff 4x
|---------------------------|
|---------------------------|
|---------------------------|
|-7--5--10--7--7--5----10---|
|-7--5--10--7--7--5----10---|
|-7--5--10--7--7--5----10---|

Solo 1x
|------------------------------------------------|
|------------8---------------------------8-------|
|-9-----(9)-------7---9------5--7--7--5----------|
|------------------------------------------------|
|------------------------------------------------|
|------------------------------------------------|

|-8---(8)-------------5----(5)--------------5----|
|---------8--(8)----------------8--(8)-----------|
|-----------------5---------------------5--------|
|------------------------------------------------|
|------------------------------------------------|
|------------------------------------------------|

Bridge 1x
|--------------------------------------------------------------------|This part 3x
|--------------------------------------------------------------------|
|--------------------------------------------------------------------|
|--------------------------------------------------------------------|
|-0-3-5-0----------------0-3-5-----------0-5-7-3--0--3---------------|
|--------------------------------------------------------------------|

|--------------------------------------------------------------------|
|--------------------------------------------------------------------|
|--------------------------------------------------------------------|
|--------------------------------------------------------------------|
|-0-3-5-0----------------0-3-5-----------0-5-7-3---------------------|
|--------------------------------------------------------------------|

Alternate Verse 1x
|--------------------------------------------------------------------|
|--------------------------------------------------------------------|
|--------------------------------------------------------------------|
|-7------7---7----------------------7------7---7---------------------|
|-5------5---5----------------------5------5---5---------------------|
|-5------7---4----------------------7------7---5---------------------|


|--------------------------------------------------------------------|
|--------------------------------------------------------------------|
|--------------------------------------------------------------------| 
|-7-7-7-7----7-7-7-7-----7--------7-7-7-7---7-7-7-7---7--------------|
|-5-5-5-5----5-5-5-5-----5--------5-5-5-5---5-5-5-5---5--------------|
|-7-7-7-7----7-7-7-7-----7--------7-7-7-7---7-7-7-7---7--------------|

Alternate Chorus 1x
|--------------------------------------------------------------------|
|--------------------------------------------------------------------|
|--------------------------------------------------------------------|
|-7-----------7---5-7---5-7---5----7-----------7---5-7---5-7---5-----|
|-7---7-7-7-7-7---5-7---5-7---5----7---7-7-7-7-7---5-7---5-7---5-----|
|-7---7-7-7-7-7---5-7---5-7---5----7---7-7-7-7-7---5-7---5-7---5-----|
PM    .......                          .......

|--------------------------------------------------------------------|
|--------------------------------------------------------------------|
|--------------------------------------------------------------------|
|-3-----------3---0-3---0-3---0----3-----------3---0-3---0-3---0-----|
|-3---3-3-3-3-3---0-3---0-3---0----3---3-3-3-3-3---0-3---0-3---0-----|
|-3---3-3-3-3-3---0-3---0-3---0----3---3-3-3-3-3---0-3---0-3---0-----|
PM    .......                          .......

|--------------------------------------------------------------------|
|--------------------------------------------------------------------|
|--------------------------------------------------------------------|
|-0-----------0---0-0---0-0---0----0-----------0---0-0---0-0---0-----|
|-0---0-0-0-0-0---0-0---0-0---0----0---0-0-0-0-0---0-0---0-0---0-----|
|-0---0-0-0-0-0---0-0---0-0---0----0---0-0-0-0-0---0-0---0-0---0-----|
PM    .......                          .......

|--------------------------------------------------------------------|
|--------------------------------------------------------------------|
|--------------------------------------------------------------------|
|-7-----------7---5-7---5-7---5----7-----7-----7---7-----7-7-7-7-----|
|-7---7-7-7-7-7---5-7---5-7---5----7-----7-----7---7-----7-7-7-7-----|
|-7---7-7-7-7-7---5-7---5-7---5----7-----7-----7---7-----7-7-7-7-----|
PM    .......                          

2nd Chorus Alternate 1x
|--------------------------------------------------------------------|
|--------------------------------------------------------------------|
|--------------------------------------------------------------------|
|-7-----------7---5-7---5-7---5----7-----------7---5-7---5-7---5-----|
|-7---7-7-7-7-7---5-7---5-7---5----7---7-7-7-7-7---5-7---5-7---5-----|
|-7---7-7-7-7-7---5-7---5-7---5----7---7-7-7-7-7---5-7---5-7---5-----|
PM    .......                          .......

|--------------------------------------------------------------------|
|--------------------------------------------------------------------|
|--------------------------------------------------------------------|
|-3-----------3---0-3---0-3---0----3-----------3---0-3---0-3---0-----|
|-3---3-3-3-3-3---0-3---0-3---0----3---3-3-3-3-3---0-3---0-3---0-----|
|-3---3-3-3-3-3---0-3---0-3---0----3---3-3-3-3-3---0-3---0-3---0-----|
PM    .......                          .......

|--------------------------------------------------------------------|
|--------------------------------------------------------------------|
|--------------------------------------------------------------------|
|-0-----------0---0-0---0-0---0----0-----------0---0-0---0-0---0-----|
|-0---0-0-0-0-0---0-0---0-0---0----0---0-0-0-0-0---0-0---0-0---0-----|
|-0---0-0-0-0-0---0-0---0-0---0----0---0-0-0-0-0---0-0---0-0---0-----|
PM    .......                          .......

|--------------------------------------------------------------------|
|--------------------------------------------------------------------|
|--------------------------------------------------------------------|
|-7-----------7---7-7---7-7---7----7-------------7---7-7--7-7---7----|
|-7---7-7-7-7-7---7-7---7-7---7----7---7-7-7-7-7-7---7-7--7-7---7----|
|-7---7-7-7-7-7---7-7---7-7---7----7---7-7-7-7-7-7---7-7--7-7---7----|
PM    .......                          .........

Interlude 2 2x
|---------------------------|
|---------------------------|
|---------------------------|
|-7--5--10--7--7--5----10---|
|-7--5--10--7--7--5----10---|
|-7--5--10--7--7--5----10---|

|-----------------------------|
|-----------------------------|
|-------------------------*5*-|
|-7--5--10--7--7--5----10-----|
|-7--5--10--7--7--5----10-----|
|-7--5--10--7--7--5----10-----|

Conclusion 1x
|-----------------------------|This part 3 times.
|-----------------------------|
|-------------------------*5*-|
|-7--5--10--7--7--5----10-----|
|-7--5--10--7--7--5----10-----|
|-7--5--10--7--7--5----10-----|

|---------------------------|
|---------------------------|
|---------------------------|
|-7--5--10--7--7--5----10---|
|-7--5--10--7--7--5----10---|
|-7--5--10--7--7--5----10---|

And thats it.

x=pick scratch
()=Hold note
**=harmonics
Suggest correction
What's this?
You can suggest a correction to this tab. Community and Mods will review your correction and vote to approve or reject it.
comments
We did not receive enough feedback on this tab! Please rate:
print report bad tab
1 2 3 4 5
guest
You may want to rate the tab now too:
select rating
Please do not post tabs as comments. Select "correction" instead!