Oops, an error
Loading. Please wait.

Shout 2000 Tab

version 4
version 4

Whole song

Interactive

4,322 views 6 this week
no commentswrite comment
1 2 3 4 5
excellent!
x 2
add to favorites
launch autoscroll
font size
0
reset
how to read this tab
guitar tuner
Tab Pro tools
  • play this tab
  • loop segment
  • change instrument
  • show fretboard
  • metronome
Autoscroll
slow
fast
+/-
esc
set tempo
stop
Contributor
Difficulty
Tuning
intermediate
C# G# C# F# A# D#
Gtr I (C# G# C# F# A# D#) - 'Gtr I'
Gtr II (C# G# C# F# A# D#) - 'Gtr II'


 Intro          Chorus
  Moderately Q=96
                 A5
 4/4
  Gtr I
  Wx2            E S S S S E S E S E S S   E S S S S E S E S E S S
|------------||--------------------------|-------------------------|
|------------||o-------------------------|-------------------------|
|------------||--------------------------|-------------------------|
|------------||--7-7-7-7-7-7-7-7-7-7-7-7-|-7-7-7-7-7-7-7-7-7-7-7-7-|
|------------||o-7-7-7-7-7-7-7-7-7-7-7-7-|-7-7-7-7-7-7-7-7-7-7-7-7-|
|------------||--7-7-7-7-7-7-7-7-7-7-7-7-|-7-7-7-7-7-7-7-7-7-7-7-7-|


  F5
  E S S S S E S E S E S S   E S S S S E S E S E S S
|-------------------------|-------------------------|
|-------------------------|-------------------------|
|-------------------------|-------------------------|
|-3-3-3-3-3-3-3-3-3-3-3-3-|-3-3-3-3-3-3-3-3-3-3-3-3-|
|-3-3-3-3-3-3-3-3-3-3-3-3-|-3-3-3-3-3-3-3-3-3-3-3-3-|
|-3-3-3-3-3-3-3-3-3-3-3-3-|-3-3-3-3-3-3-3-3-3-3-3-3-|


  D5
  S S S S S S S S S S S S S S S S   S S S S S S S S S S S S S S S S
|---------------------------------|---------------------------------|
|---------------------------------|---------------------------------|
|---------------------------------|---------------------------------|
|-7---7-7---7-7---7-7---7-7---7-7-|-7---7-7---7-7---7-7---7-7---7-7-|
|-5---5-5---5-5---5-5---5-5---5-5-|-5---5-5---5-5---5-5---5-5---5-5-|
|---------------------------------|---------------------------------|


                            1.
  A5
  Gtr II
  E S S S S E S E S E S S   E S S S S E S E S E S S
  | | | | | | | | | | | |   | | | | | | | | | | | |
  / / / / / / / / / / / /   / / / / / / / / / / / /

  Gtr I
    PM------------------|     PM------------------|
  E S S S S E S E S E S S   E S S S S E S E S E S S
|-------------------------|--------------------------||
|-------------------------|-------------------------o||
|-------------------------|--------------------------||
|-7-----------------------|-7------------------------||
|-7-7-7-7-7-7-7-7-7-7-7-7-|-7-7-7-7-7-7-7-7-7-7-7-7-o||
|-7-7-7-7-7-7-7-7-7-7-7-7-|-7-7-7-7-7-7-7-7-7-7-7-7--||


                            Verse 1
  2.
  A5                         C5   C          C6   C     C5C
  E S S S S E S E S E S S    W               W
  | | | | | | | | | | | |
  / / / / / / / / / / / /

    PM------------------|
  E S S S S E S E S E S S    Q.   E +H       Q.   E +E  E Q
|-------------------------||---------------|-----------------|
|-------------------------||---------------|-----------------|
|-------------------------||---------------|-----------------|
|-7-----------------------||-5----4-(4)----|-7----4-(4)-5-4--|
|-7-7-7-7-7-7-7-7-7-7-7-7-||-3----3-(3)----|-3----3-(3)-3-3--|
|-7-7-7-7-7-7-7-7-7-7-7-7-||---------------|-----------------|


  D5
  S S S S E S S S S E S S S S   S S S S E S S S S E S S S S
|-----------------------------|-----------------------------|
|-----------------------------|-----------------------------|
|-----------------------------|-----------------------------|
|-0-0-0-0---0-0-0-0---0---x-x-|-0-0-0-0---0-0-0-0---0---x-x-|
|-0-0-0-0---0-0-0-0---0---x-x-|-0-0-0-0---0-0-0-0---0---x-x-|
|-0-0-0-0---0-0-0-0---0---x-x-|-0-0-0-0---0-0-0-0---0---x-x-|


  C5   C          C6   C     C5C    D5
  Q.   E +H       Q.   E +E  E Q    S S S S E S S S S E S S S S
|---------------|-----------------|-----------------------------|
|---------------|-----------------|-----------------------------|
|---------------|-----------------|-----------------------------|
|-5----4-(4)----|-7----4-(4)-5-4--|-0-0-0-0---0-0-0-0---0---x-x-|
|-3----3-(3)----|-3----3-(3)-3-3--|-0-0-0-0---0-0-0-0---0---x-x-|
|---------------|-----------------|-0-0-0-0---0-0-0-0---0---x-x-|


                                 Verses 2 & 3
                                  C5   C          C6   C     C5C
  S S S S E S S S S E S S S S     Q.   E +H       Q.   E +E  E Q
|-----------------------------||----------------|-----------------|
|-----------------------------||o---------------|-----------------|
|-----------------------------||----------------|-----------------|
|-0-0-0-0---0-0-0-0---0---x-x-||--5----4-(4)----|-7----4-(4)-5-4--|
|-0-0-0-0---0-0-0-0---0---x-x-||o-3----3-(3)----|-3----3-(3)-3-3--|
|-0-0-0-0---0-0-0-0---0---x-x-||----------------|-----------------|


  D5                                                          C5   C
  S S S S E S S S S E S S S S   S S S S E S S S S E S S S S   Q.   E +H
|-----------------------------|-----------------------------|---------------|
|-----------------------------|-----------------------------|---------------|
|-----------------------------|-----------------------------|---------------|
|-0-0-0-0---0-0-0-0---0---x-x-|-0-0-0-0---0-0-0-0---0---x-x-|-5----4-(4)----|
|-0-0-0-0---0-0-0-0---0---x-x-|-0-0-0-0---0-0-0-0---0---x-x-|-3----3-(3)----|
|-0-0-0-0---0-0-0-0---0---x-x-|-0-0-0-0---0-0-0-0---0---x-x-|---------------|


  C6   C     C5C    D5
  Q.   E +E  E Q    S S S S E S S S S E S S S S
|-----------------|-----------------------------|
|-----------------|-----------------------------|
|-----------------|-----------------------------|
|-7----4-(4)-5-4--|-0-0-0-0---0-0-0-0---0---x-x-|
|-3----3-(3)-3-3--|-0-0-0-0---0-0-0-0---0---x-x-|
|-----------------|-0-0-0-0---0-0-0-0---0---x-x-|


  S S S S E S S S S E S S S S
|------------------------------||
|------------------------------||
|------------------------------||
|-0-0-0-0---0-0-0-0---0---x-x--||
|-0-0-0-0---0-0-0-0---0---x-x--||
|-0-0-0-0---0-0-0-0---0---x-x--||


 Chorus
  A5                                                  F5
  E S S S S E S E S E S S   E S S S S E S E S E S S   E S S S S E S E S E S S
|-------------------------|-------------------------|--------------------------|
|-------------------------|-------------------------|--------------------------|
|-------------------------|-------------------------|--------------------------|
|-7-7-7-7-7-7-7-7-7-7-7-7-|-7-7-7-7-7-7-7-7-7-7-7-7-|-3-3-3-3-3-3-3-3-3-3-3-3--|
|-7-7-7-7-7-7-7-7-7-7-7-7-|-7-7-7-7-7-7-7-7-7-7-7-7-|-3-3-3-3-3-3-3-3-3-3-3-3--|
|-7-7-7-7-7-7-7-7-7-7-7-7-|-7-7-7-7-7-7-7-7-7-7-7-7-|-3-3-3-3-3-3-3-3-3-3-3-3--|


                            D5
  E S S S S E S E S E S S   S S S S S S S S S S S S S S S S
|-------------------------|---------------------------------|
|-------------------------|---------------------------------|
|-------------------------|---------------------------------|
|-3-3-3-3-3-3-3-3-3-3-3-3-|-7---7-7---7-7---7-7---7-7---7-7-|
|-3-3-3-3-3-3-3-3-3-3-3-3-|-5---5-5---5-5---5-5---5-5---5-5-|
|-3-3-3-3-3-3-3-3-3-3-3-3-|---------------------------------|


  1.
  S S S S S S S S S S S S S S S S
|----------------------------------|
|----------------------------------|
|----------------------------------|
|-7---7-7---7-7---7-7---7-7---7-7--|
|-5---5-5---5-5---5-5---5-5---5-5--|
|----------------------------------|


  A5
  Gtr II
  E S S S S E S E S E S S   E S S S S E S E S E S S
  | | | | | | | | | | | |   | | | | | | | | | | | |
  / / / / / / / / / / / /   / / / / / / / / / / / /

  Gtr I
    PM------------------|     PM------------------|
  E S S S S E S E S E S S   E S S S S E S E S E S S
|-------------------------|--------------------------||
|-------------------------|-------------------------o||
|-------------------------|--------------------------||
|-7-----------------------|-7------------------------||
|-7-7-7-7-7-7-7-7-7-7-7-7-|-7-7-7-7-7-7-7-7-7-7-7-7-o||
|-7-7-7-7-7-7-7-7-7-7-7-7-|-7-7-7-7-7-7-7-7-7-7-7-7--||


  2.
  D5
  W
  S S S S S S S S S S S S S S S S
|-----------------------------------||
|-----------------------------------||
|-----------------------------------||
|-7---7-7---7-7---7-7---7-7---7-7---||
|-5---5-5---5-5---5-5---5-5---5-5---||
|-----------------------------------||


 Bridge
  N.C.
  E E E S S +S  E. Q    E E E S S +S  E. Q    E E E S S +S  E. Q
|---------------------|---------------------|---------------------|
|---------------------|---------------------|---------------------|
|---------------------|---------------------|---------------------|
|---------------------|---------------------|---------------------|
|-0---3-0-0-(0)----3--|-0---3-0-0-(0)----3--|-0---3-0-0-(0)----3--|
|---5-----------5-----|---5-----------5-----|---5-----------5-----|


                        D5                      A5(type 2)
  E E E S S +S  E. Q    W          +W           W          +W
|---------------------|----------|------------|----------|--------|
|---------------------|----------|------------|----------|--------|
|---------------------|----------|------------|-2--------|-(2)----|
|---------------------|-7--------|-(7)--------|-2--------|-(2)----|
|-0---3-0-0-(0)----3--|-5--------|-(5)--------|-0--------|-(0)----|
|---5-----------5-----|----------|------------|----------|--------|


  Am
  Q  E  a      +E   +E   +E       Q        W
|----------------------------------------|------|
|------10b12==(10)-(10)r(10)\------------|------|
|------12b14==(12)-(12)r(12)\------------|------|
|----------------------------------------|------|
|----------------------------------------|------|
|----------------------------------------|------|
|
| Gtr II
| H                  E    S    S  S  S E   W
|------------------------17---17-17-17---|------|
|----------------------------------------|------|
|----------------------------------------|------|
|----------------------------------------|------|
|----------------------------------------|------|
|----------------------------------------|------|


  Q  E a    +E  +E  +E     Q       W
|--------------------------------|------|
|------5b7==(5)-(5)r(5)\---------|------|
|------7b9==(7)-(7)r(7)\---------|------|
|--------------------------------|------|
|--------------------------------|------|
|--------------------------------|------|
|
| H              E   S   S S S E   W
|--------------------------------|------|
|--------------------------------|------|
|--------------------2---2-2-2---|------|
|--------------------------------|------|
|--------------------------------|------|
|--------------------------------|------|


  Q  E  a      +E   +E   +E       Q        W
|----------------------------------------|------||
|------10b12==(10)-(10)r(10)\------------|------||
|------12b14==(12)-(12)r(12)\------------|------||
|----------------------------------------|------||
|----------------------------------------|------||
|----------------------------------------|------||
|
| H                  E    S    S  S  S E   W
|------------------------17---17-17-17---|------||
|----------------------------------------|------||
|----------------------------------------|------||
|----------------------------------------|------||
|----------------------------------------|------||
|----------------------------------------|------||


  Q  E a    +E  +E  +E     Q       W
|--------------------------------|------|
|------5b7==(5)-(5)r(5)\---------|------|
|------7b9==(7)-(7)r(7)\---------|------|
|--------------------------------|------|
|--------------------------------|------|
|--------------------------------|------|
|
| H              E   S   S S S E   W
|--------------------------------|------|
|--------------------------------|------|
|--------------------2---2-2-2---|------|
|--------------------------------|------|
|--------------------------------|------|
|--------------------------------|------|


 Verse 4
  C5    C             C5    C           D5
  E E E E E E E S S   E E E E E E E E   S S S S E S S S S E S E.
|-------------------|-----------------|---------------------------|
|-------------------|-----------------|---------------------------|
|-------------------|-----------------|---------------------------|
|-5-5-5-4-4-4-4-4-4-|-5-5-5-4-4-4-4-4-|-0-0-0-0---0-0-0-0---0-----|
|-3-3-3-3-3-3-3-3-3-|-3-3-3-3-3-3-3-3-|-0-0-0-0---0-0-0-0---0-----|
|-------------------|-----------------|-0-0-0-0---0-0-0-0---0-----|


                             C5    C             C5    C
  S S S S E S S S S E S E.   E E E E E E E S S   E E E E E E E E
|--------------------------|-------------------|------------------|
|--------------------------|-------------------|------------------|
|--------------------------|-------------------|------------------|
|-0-0-0-0---0-0-0-0---0----|-5-5-5-4-4-4-4-4-4-|-5-5-5-4-4-4-4-4--|
|-0-0-0-0---0-0-0-0---0----|-3-3-3-3-3-3-3-3-3-|-3-3-3-3-3-3-3-3--|
|-0-0-0-0---0-0-0-0---0----|-------------------|------------------|


  D5
  S S S S E S S S S E S E.   S S S S E S S S S E S E.
|--------------------------|-------------------------------||
|--------------------------|-------------------------------||
|--------------------------|-------------------------------||
|-0-0-0-0---0-0-0-0---0----|-0-0-0-0---0-0-0-0---0---------||
|-0-0-0-0---0-0-0-0---0----|-0-0-0-0---0-0-0-0---0---------||
|-0-0-0-0---0-0-0-0---0----|-0-0-0-0---0-0-0-0---0---------||
|
| Gtr II
| W                          S S S S E S S E   E S S  S S
|--------------------------|-------------------------------||
|--------------------------|-------------------------------||
|--------------------------|-------------------------------||
|--------------------------|-0-0-0-0---0-0-x---x-x-x--x-x--||
|--------------------------|-0-0-0-0---0-0-x---x-x-x--x-x--||
|--------------------------|-0-0-0-0---0-0-x---x-x-x--x-x--||


 Chorus
  A5          G5A5G5A5G5  A5          G5A5G5A5G5
    PM----|                 PM----|
  E S S S S E S E S E E   E S S S S E S E S E E
|-----------------------|-----------------------|
|-----------------------|-----------------------|
|-----------------------|-----------------------|
|-7---------7-5-7-5-7-5-|-7---------7-5-7-5-7-5-|
|-7---------7-5-7-5-7-5-|-7---------7-5-7-5-7-5-|
|-7-7-7-7-7-7-5-7-5-7-5-|-7-7-7-7-7-7-5-7-5-7-5-|


  F5          G5A5G5A5G5  F5          G5A5G5A5G5
    PM----|                 PM----|
  E S S S S E S E S E E   E S S S S E S E S E E
|-----------------------|-----------------------|
|-----------------------|-----------------------|
|-----------------------|-----------------------|
|-3---------3-5-7-5-7-5-|-3---------3-5-7-5-7-5-|
|-3---------3-5-7-5-7-5-|-3---------3-5-7-5-7-5-|
|-3-3-3-3-3-3-5-7-5-7-5-|-3-3-3-3-3-3-5-7-5-7-5-|


  D5          G5A5G5A5G5  D5          G5A5G5A5G5
    PM----|                 PM----|
  E S S S S E S E S E E   E S S S S E S E S E E
|-----------------------|-----------------------|
|-----------------------|-----------------------|
|-----------------------|-----------------------|
|-0---------0-5-7-5-7-5-|-0---------0-5-7-5-7-5-|
|-0---------0-5-7-5-7-5-|-0---------0-5-7-5-7-5-|
|-0-0-0-0-0-0-5-7-5-7-5-|-0-0-0-0-0-0-5-7-5-7-5-|


  A5          G5A5G5A5G5A5  G5A5
  E S S S S E S E S E S S   S E S S S S S S S S S S S S S
|-------------------------|-------------------------------|
|-------------------------|-------------------------------|
|-------------------------|-------------------------------|
|-7---------7-5-7-5-7-5-7-|-5-7-7-7-7-7-7-7-7-7-7-7-7-7-7-|
|-7---------7-5-7-5-7-5-7-|-5-7-7-7-7-7-7-7-7-7-7-7-7-7-7-|
|-7-7-7-7-7-7-5-7-5-7-5-7-|-5-7-7-7-7-7-7-7-7-7-7-7-7-7-7-|


  A5          G5A5G5A5G5  A5          G5A5G5A5G5
    PM----|                 PM----|
  E S S S S E S E S E E   E S S S S E S E S E E
|-----------------------|-----------------------|
|-----------------------|-----------------------|
|-----------------------|-----------------------|
|-7---------7-5-7-5-7-5-|-7---------7-5-7-5-7-5-|
|-7---------7-5-7-5-7-5-|-7---------7-5-7-5-7-5-|
|-7-7-7-7-7-7-5-7-5-7-5-|-7-7-7-7-7-7-5-7-5-7-5-|


  F5          G5A5G5A5G5  F5          G5A5G5A5G5
    PM----|                 PM----|
  E S S S S E S E S E E   E S S S S E S E S E E
|-----------------------|-----------------------|
|-----------------------|-----------------------|
|-----------------------|-----------------------|
|-3---------3-5-7-5-7-5-|-3---------3-5-7-5-7-5-|
|-3---------3-5-7-5-7-5-|-3---------3-5-7-5-7-5-|
|-3-3-3-3-3-3-5-7-5-7-5-|-3-3-3-3-3-3-5-7-5-7-5-|


  D5          G5A5G5A5G5  D5          G5A5G5A5G5
    PM----|                 PM----|
  E S S S S E S E S E E   E S S S S E S E S E E
|-----------------------|-----------------------|
|-----------------------|-----------------------|
|-----------------------|-----------------------|
|-0---------0-5-7-5-7-5-|-0---------0-5-7-5-7-5-|
|-0---------0-5-7-5-7-5-|-0---------0-5-7-5-7-5-|
|-0-0-0-0-0-0-5-7-5-7-5-|-0-0-0-0-0-0-5-7-5-7-5-|


  A5          G5A5G5A5G5A5              G5A5 C5
  E S S S S E S E S E S S   E S S S S E S E.  Q
|-------------------------|-----------------------|
|-------------------------|-----------------------|
|-------------------------|-----------------------|
|-7---------7-5-7-5-7-5-7-|-7---------7-5-7-------|
|-7---------7-5-7-5-7-5-7-|-7---------7-5-7--10\--|
|-7-7-7-7-7-7-5-7-5-7-5-7-|-7-7-7-7-7-7-5-7--10\--|


 Outro
  A5G5C5 A5    G5 C5    A5G5C5 A5    G5 C5
  E E  E E +S  E.  Q    E E  E E +S  E.  E  E
|---------------------|------------------------|
|---------------------|------------------------|
|---------------------|--------------------[5]-|
|-7-5-10-7-(7)-5--10--|-7-5-10-7-(7)-5--10-----|
|-7-5-10-7-(7)-5--10--|-7-5-10-7-(7)-5--10-----|
|-7-5-10-7-(7)-5--10--|-7-5-10-7-(7)-5--10-----|


  A5G5C5 A5    G5 C5    A5G5C5 A5    G5 C5
  E E  E E +S  E.  Q    E E  E E +S  E.  E  E
|---------------------|------------------------|
|---------------------|------------------------|
|---------------------|--------------------[5]-|
|-7-5-10-7-(7)-5--10--|-7-5-10-7-(7)-5--10-----|
|-7-5-10-7-(7)-5--10--|-7-5-10-7-(7)-5--10-----|
|-7-5-10-7-(7)-5--10--|-7-5-10-7-(7)-5--10-----|


  A5G5C5 A5    G5 C5       A5G5C5 A5    G5 C5
  E E  E E +S  E.  E  E    E E  E E +S  E.  E  E
|------------------------|------------------------|
|------------------------|------------------------|
|--------------------[5]-|--------------------[5]-|
|-7-5-10-7-(7)-5--10-----|-7-5-10-7-(7)-5--10-----|
|-7-5-10-7-(7)-5--10-----|-7-5-10-7-(7)-5--10-----|
|-7-5-10-7-(7)-5--10-----|-7-5-10-7-(7)-5--10-----|


  A5G5C5 A5    G5 C5       A5G5C5 A5    G5 C5
  E E  E E +S  E.  E  E    E E  E E +S  E.  E E
|------------------------|----------------------*|
|------------------------|----------------------*|
|--------------------[5]-|----------------------*|
|-7-5-10-7-(7)-5--10-----|-7-5-10-7-(7)-5--10---*|
|-7-5-10-7-(7)-5--10-----|-7-5-10-7-(7)-5--10---*|
|-7-5-10-7-(7)-5--10-----|-7-5-10-7-(7)-5--10---*|




--------------------------------------------------------------------------------


Duration Legend
---------------
W - whole; H - half; Q - quarter; E - 8th; S - 16th; T - 32nd; X - 64th; a - acciaccatura
+ - note tied to previous; . - note dotted; .. - note double dotted
Uncapitalized letters represent notes that are staccato (1/2 duration)
Irregular groupings are notated above the duration line
Duration letters will always appear directly above the note/fret number it represents the
duration for.  Duration letters with no fret number below them represent rests.  Multi-
bar rests are notated in the form Wxn, where n is the number of bars to rest for.  Low
melody durations appear below the staff

Tablature Legend
----------------
 h   - hammer-on
 p   - pull-off
 b   - bend
 pb  - pre-bend
 r   - bend release (if no number after the r, then release immediately)
 /\  - slide into or out of (from/to "nowhere")
 s   - legato slide
 S   - shift slide
 - natural harmonic
[n]  - artificial harmonic
n(n) - tapped harmonic
 ~   - vibrato
 tr  - trill
 T   - tap
 TP  - trem. picking
 PM  - palm muting
\n/  - tremolo bar dip; n = amount to dip
 \n  - tremolo bar down
 n/  - tremolo bar up
/n\  - tremolo bar inverted dip
 =   - hold bend; also acts as connecting device for hammers/pulls
 <> - volume swell (louder/softer)
 x   - on rhythm slash represents muted slash
 o   - on rhythm slash represents single note slash

Misc Legend
-----------
 |  - bar
||  - double bar
||o - repeat start
o|| - repeat end
*|  - double bar (ending)
 :  - bar (freetime)
 $  - Segno
 &  - Coda
Tempo markers -  = BPM(8/16=s8/s16), where s8 = swing 8ths, s16 = swing 16ths


comments
We did not receive enough feedback on this tab! Please rate:
print report bad tab
1 2 3 4 5
I want to post or [tab]
guest
You may want to rate the tab now too:
select rating
Please do not post tabs as comments. Select "correction" instead!