Oops, an error
Loading. Please wait.

Stricken Tab

62,885 views 60 this week
6 commentsread comments
1 2 3 4 5
accurate
x 10
add to favorites
launch autoscroll
font size
0
reset
how to read this tab
guitar tuner
Autoscroll
slow
fast
+/-
esc
set tempo
stop
Help us to improve Ultimate-Guitar.com Take our survey!
×
Contributor
Tuning
C G C F A D
-------------------------------------------------------------------------------
                             Striken Solo - Disturbed
-------------------------------------------------------------------------------
Tabbed by:Zpepperdude
Email:Zpepperdude@yahoo.com

Tuning:CGCFAD

Guitar 1

D|---------------10-12-|-12b13-12p10---------------------------|
A|-13b15r13~~~-10------|-------------10~~----------------------|
F|---------------------|---------------------10-12-12b14r12p10-|
C|---------------------|-----------------/12-------------------|
G|---------------------|---------------------------------------|
C|---------------------|---------------------------------------|
 |
 |Guitar 2
 | Rhy. Fig. 1
D|---------------------|---------------------------------------|
A|---------------------|---------------------------------------|
F|---------------------|---------------------------------------|
C|---------------------|---------------------------------------|
G|-8--8-8-8-7----7-7-7-|-8--8-8-8-10--------7----7----8--------|
C|-8--8-8-8-8----8-8-8-|-8--8-8-8-8---------8----8----8--------|

D|-------------------------------------|-------------------------------------------12-|
A|-10------------10---------10---------|-12b13r12-12b13r12-12b13r12-12b13r12-10---13--|
F|-10------------10---------10---------|-12b13r12-12b13r12-12b13r12-12b13r12-10-14----|
C|---12-10-12-12---12-10-12---12-10-12-|----------------------------------------------|
G|-------------------------------------|----------------------------------------------|
C|-------------------------------------|----------------------------------------------|
 |
 |
 |                                                                       End Rhy. Fig. 1
D|-------------------------------------|-----------------------------------------------|
A|-------------------------------------|-----------------------------------------------|
F|-------------------------------------|-----------------------------------------------|
C|-0-----x--x--0---0-----x--x--0--x--x-|-0--------------x--x--0-----0--x--x--0-----x--x|
G|-0-----x--x--0---0-----x--x--0--x--x-|-0--------------x--x--0-----0--x--x--0-----x--x|
C|-0-----x--x--0---0-----x--x--0--x--x-|-0--------------x--x--0-----0--x--x--0-----x--x|

Guiitar 2 w/ rhy. Fig. 1 (1 1/2 times)

D|-13-12--------------15b17--15-13-15b17------|-20b22-20-17---18p17---------|
A|-------13--------13--------------------15~~-|---------------------18------|
F|----------12--14----------------------------|------------------------17-19|
C|--------------------------------------------|-----------------------------|
G|--------------------------------------------|-----------------------------|
C|--------------------------------------------|-----------------------------|
  Hold bend
D|----------------------------------------------|-------------------------10|
A|----------------------------------------------|------------------13-------|
F|-19b21-21-21-21-21-21-21-21-21-21-21-21r19p17-|-19~~--10-12-12b14~~~14r12-|
C|----------------------------------------------|---------------------------|
G|----------------------------------------------|---------------------------|
C|----------------------------------------------|---------------------------|

D|-13p10h12p10------13p10h12p12------13p10h12p10-----13p10h12p10-----13p10h13p10-----13p10|
A|-------------13p12------------13p10-----------13p10-----------13p10-----------13p10-----|
F|----------------------------------------------------------------------------------------|
C|----------------------------------------------------------------------------------------|
G|----------------------------------------------------------------------------------------|
C|----------------------------------------------------------------------------------------|

D|-15p10h13p10-----15p10h13p10------15p10h13p10------15p10h13p10------15p10h13p10-----13p10|
A|------------13p10------------13p10------------13p10------------13p10-----------13p10-----|
F|-----------------------------------------------------------------------------------------|
C|-----------------------------------------------------------------------------------------|
G|-----------------------------------------------------------------------------------------|
C|-----------------------------------------------------------------------------------------|

Guitar 1
P.M----------------------------------|
D|------------------------------------|
A|-10-----10-----10-----10------------|
F|---10-12--10-12--10-12-------9-10-9-|
C|------------------------10-12-------|
G|------------------------------------|
C|------------------------------------|
 |
 |Guitar 2
 |
D|------------------------------------|
A|------------------------------------|
F|------------------------------------|
C|------------------------------------|
G|-7---7---7---7----7---7---7---7-----|
C|-7---7---7---7----7---7---7---7-----|

Guitar 1

D|-------------------------------------------------------------------------------------|
A|-13b14-10h12p10----10---------------------------10h11p10--------10h11p10-------------|
F|----------------13----13-12-10-12b14r12p10-10-12---------12-10-12--------12-9h10p9---|
C|----------------------------------------------------------------------------------12-|
G|-------------------------------------------------------------------------------------|
C|-------------------------------------------------------------------------------------|
 |
 |Guitar 2
 |
D|----------------------------------------------------|
A|----------------------------------------------------|
F|----------------------------------------------------|
C|--------------------------------------------------5-|
G|-5-----5-----5-----3-----3-----2-----2------------3-|
C|-5-----5-----5-----3-----3-----2-----2--------------|

key
h      Hammer on
p      pull off
~      vibroto
b      bend
r      realese
P.M.   palm mute

comments
print report bad tab
6 comments total. Showing first comments.
0 reply
Scariestkiller 31 wrote on November 5 2008, 06:55 pm

Pretty sick bro

0 reply
lespaul632 12 wrote on December 13 2008, 08:54 pm

dude omg that sucked huge juciy old hairy monkey cock. i mean what the **** were you thinking when you put this tab up here. it is terrible i feel sorry that i wasted time out of my day to even look at this

+1 reply
00bk00bk 47 wrote on February 18 2009, 10:36 pm

Man dont listen to that guy above me. This tab is insane, plays great 5/5.

I want to post or [tab]
guest
You may want to rate the tab now too:
select rating
Please do not post tabs as comments. Select "correction" instead!