Oops, an error
Loading. Please wait.

Stricken Tab

31,676 views 33 this week
5 commentsread comments
1 2 3 4 5
accurate
x 13
add to favorites
launch autoscroll
font size
0
reset
how to read this tab
guitar tuner
Autoscroll
slow
fast
+/-
esc
set tempo
stop
Help us to improve Ultimate-Guitar.com Take our survey!
×
Author
Tuning
C G C F A D
-------------------------------------------------------------------------------
                             "Stricken" --- Disturbed
-------------------------------------------------------------------------------
Tuning: Guitar 1: C G C F A D (low to high)
        Guitar 2: C G C F A D (low to high)
        Guitar 3: C G C F A D (low to high)

Key:

... = palm mute
h = hammer on
p = pull off
* = pinch harmonic
/ = slide up
\ = slide down
~ = vibrato
x = muted string with fret hand
b = bend
.5 = half step bend
1 = full step bend
() = bring bent note back to normal
===  = hold bend while picking notes



__________________________________________________________________________________
Guitar Solo:
Guitar 1:
     1                                  1                              1
D|-----------------------------10-12--12b--------12p10-------------------------------|
A|-13b----------13~~~~~~~~~~10-------------------------10----------------------------|
F|-------------------------------------------------------------10-12-12b--(12)p10----|
C|---------------------------------------------------------/12--------------------12-|
G|-----------------------------------------------------------------------------------|
C|-----------------------------------------------------------------------------------|

Guitars 2 and 3:
D|----------------------------------------------------------------------------|
A|----------------------------------------------------------------------------|
F|----------------------------------------------------------------------------|
C|----------------------------------------------------------------------------|
G|-8----8--8--8--7------7--7---7-------8---------8--8--8-10-------7----8---10-|
C|-8----8--8--8--8------8--8---8-------8---------8--8--8--8-------8----8----8-|

____________________________________________________________________________________
Guitar 1: The .5 is for the 12 on the A string, and the 1 is for the 12 on the F string.

                                               .5        .5        .5       .5
                                                1         1         1        1
D|---------------------------------------------------------------------------------------|
A|------------------------------10------------12b--(12)-12b--(12)-12b-(12)-12b--(12)--10-|
F|-10--------------10-----------10------------12b--(12)-12b--(12)-12b-(12)-12b--(12)--10-|
C|-----12-10-12-12-----12-10-12-----12-10-12---------------------------------------------|
G|---------------------------------------------------------------------------------------|
C|---------------------------------------------------------------------------------------|
       ...........     ........     ........


Guitars 2 and 3:
D|-------------------------------------------------------------------------------|
A|-3------x--x--3------x--x--3----x--x-----3--------x--x--3------x--x--3----x--x-|
F|-2------x--x--2------x--x--2----x--x-----2--------x--x--2------x--x--2----x--x-|
C|-0------x--x--0------x--x--0----x--x-----0--------x--x--0------x--x--0----x--x-|
G|-0------x--x--0------x--x--0----x--x-----0--------x--x--0------x--x--0----x--x-|
C|-0------x--x--0------x--x--0----x--x-----0--------x--x--0------x--x--0----x--x-|

_____________________________________________________________________________________
Guitar 1:
                                1             1             1
D|-----12-13-12---------------15b-----15-13-15b-----------20b----20----17----19p17----------|
A|---13---------13---------13---------------------15~~~~~--------------------------18-------|
F|-14--------------12---14------------------------------------------------------------17-19-|
C|------------------------------------------------------------------------------------------|
G|------------------------------------------------------------------------------------------|
C|------------------------------------------------------------------------------------------|

Guitars 2 and 3:
D|---------------------------------------------------------------------------------------|
A|---------------------------------------------------------------------------------------|
F|---------------------------------------------------------------------------------------|
C|---------------------------------------------------------------------------------------|
G|-8-----8--8--8--7----------------7----7----7-----10-----10-10-10-10--------8---------7-|
C|-8-----8--8--8--8----------------8----8----8------8------8--8--8--8--------8---------8-|

_____________________________________________________________________________________
Guitar 1: Hold the 19 bend while picking the other 19s, below the =====s.

     1============================================                                1============
D|------------------------------------------------------------------------------------------------10-|
A|-------------------------------------------------------------------------------------13----10------|
F|-19b--19--19--19--19--19--19--19--19--19--19--19~~~~---(19)p17--19------10-12-12b------------------|
C|---------------------------------------------------------------------------------------------------|
G|---------------------------------------------------------------------------------------------------|
C|---------------------------------------------------------------------------------------------------|

Guitars 2 and 3:
D|----------------------------------------------------------------------------------------------------|
A|-3----------------x--x--3------------------x--x--3----x--x-------3-------x-x-3--------x-x-3-----x-x-|
F|-2----------------x--x--2------------------x--x--2----x--x-------2-------x-x-2--------x-x-2-----x-x-|
C|-0----------------x--x--0------------------x--x--0----x--x-------0-------x-x-0--------x-x-0-----x-x-|
G|-0----------------x--x--0------------------x--x--0----x--x-------0-------x-x-0--------x-x-0-----x-x-|
C|-0----------------x--x--0------------------x--x--0----x--x-------0-------x-x-0--------x-x-0-----x-x-|

____________________________________________________________________________________
Guitar 1:
D|-13p10h12p10-------13p10h12p10-------13p10h12p10-------13p10h12p10-------13p10h12p10-------13p10-|
A|-------------13p10-------------13p10-------------13p10-------------13p10-------------13p10-------|
F|-------------------------------------------------------------------------------------------------|
C|-------------------------------------------------------------------------------------------------|
G|-------------------------------------------------------------------------------------------------|
C|-------------------------------------------------------------------------------------------------|

Guitars 2 and 3:
D|-------------------------------------------------------------------------------------------------|
A|-------------------------------------------------------------------------------------------------|
F|-------------------------------------------------------------------------------------------------|
C|-------------------------------------------------------------------------------------------------|
G|-8----------------8------8-----8------7-----------------------7-----------7-----------7----------|
C|-8----------------8------8-----8------8-----------------------8-----------8-----------8----------|

____________________________________________________________________________________
Guitar 1:
D|-15p10h13p10-------15p10h13p10-------15p10h13p10-------15p10h13p10------15p10h13p10-------15-|
A|-------------13p10-------------13p10-------------13p10-------------13---------------13p10----|
F|---------------------------------------------------------------------------------------------|
C|---------------------------------------------------------------------------------------------|
G|---------------------------------------------------------------------------------------------|
C|---------------------------------------------------------------------------------------------|

Guitars 2 and 3:
D|---------------------------------------------------------------------------------------------|
A|---------------------------------------------------------------------------------------------|
F|---------------------------------------------------------------------------------------------|
C|---------------------------------------------------------------------------------------------|
G|-8----------------8------8------8----10------------------------7---------------------8-------|
C|-8----------------8------8------8-----8------------------------8---------------------8-------|

______________________________________________________________________________________
Guitar 1:
                                                   1                         1
D|--------------------------------------------------------------------------------------------------------------------------------|
A|-10-------10-------10--------------------------13b---10------10----------------------------10------------10---------------------|
F|----10-12----10-12----10-12----------9-10-9--------------13-----13p12p10-12b-(12)p10-10h12------12-10-12-----10p9h10p9----------|
C|-------------------------------10-12-----------------------------------------------------------------------------------12p10h12-|
G|----------------------------12--------------------------------------------------------------------------------------------------|
C|--------------------------------------------------------------------------------------------------------------------------------|
      .....    .....    ..............

GUitars 2 and 3:
D|-----------------------------------------------------------------------------------------------------------------------|
A|-----------------------------------------------------------------------------------------------------------------------|
F|-----------------------------------------------------------------------------------------------------------------------|
C|-------------------------------------------------------------------------------------------------------------------5---|
G|-7------7-----7------7----7-----7-----7----7-----5----5-------5------------3----------3----------2---------2-------3---|
C|-7------7-----7------7----7-----7-----7----7-----5----5-------5------------3----------3----------2---------2-----------|

End of Guitar Solo.

That's it. It's a simple song to play. Please rate and comment it.
Suggest correction
What's this?
You can suggest a correction to this tab. Community and Mods will review your correction and vote to approve or reject it.
comments
print report bad tab
5 comments total. Showing first comments.
0 reply
Ratt n' Roll 528 wrote on August 18 2008, 02:16 pm

This is copied from version 9.

0 reply
Jackie Moon 298 wrote on February 5 2009, 05:13 pm

i don't like this

0 reply
psychogtr666 67 wrote on October 18 2009, 02:24 am

this is the perfect, correct tablature. exactly like in the book.

guest
You may want to rate the tab now too:
select rating
Please do not post tabs as comments. Select "correction" instead!