Oops, an error
Loading. Please wait.

Stricken Tab

173,550 views 60 this week
21 commentsread comments
1 2 3 4 5
x 30
add to favorites
launch autoscroll
font size
0
reset
how to read this tab
guitar tuner
Autoscroll
slow
fast
+/-
esc
set tempo
stop
Help us to improve Ultimate-Guitar.com Take our survey!
×
Tuning
C F A# D# G C
Disturbed - Stricken

As Usuall with Dan Donegan, he puts a slight harmonic bend a little once in a while.
Just listen to the song. I tabbed this one up from the Disturbed website, so it was
a little bit of a bitch, if you know what I mean... Enjoy...

Tune down to C


[Intro]

C |------------------------------------------------------|
G |------------------------------------------------------|
D#|--------5-4---------2--------------5-4---------2------|
A#|-2-5-2--5-4--4-5--5-2------2--5-2--5-4--4-5--5-2--5-5-|
F |-2-5-2--3-2--4-5--5-0----2-2--5-2--3-2--4-5--5-0--5-5-|
C |-0-3-0-------2-3--3----3---0--3-0-------2-3--3----3-3-|

C |---------------------------------------------------------|
G |---------------------------------------------------------|
D#|---------5-4---------2-----------------------------------|
A#|-2--5-2--5-4--4-5--5-2------5--5-5--5--5-5-9-9-9-9-9-9-9-|
F |-2--5-2--3-2--4-5--5-0----2-5--5-5--5--5-5-9-9-9-9-9-9-9-|
C |-0--3-0-------2-3--3----3---3--3-3--3--3-3-7-7-7-7-7-7-7-|


[Verse]

C |--------------------------------------------------------|
G |--------------------------------------------------------|
D#|--------------------------------------------------------|
A#|-2------------------------------------------------------|
F |-2------------------------------------------------------|
C |-0--0-0--0-0--0-0--0-0--3-5-0--0-0--0-0--0--0-3-5-0-3-5-|

C |---------------------------------------------------------|
G |---------------------------------------------------------|
D#|---------------------------------------------------------|
A#|----------------------------5--5-5--5--5-5-9-9-9-9-9-9-9-|
F |----------------------------5--5-5--5--5-5-9-9-9-9-9-9-9-|
C |-0--0-0--0-0--0-0--0-0--3-5-3--3-3--3--3-3-7-7-7-7-7-7-7-|


[Chorus]

C |-----------------------------------------------|
G |-----------------------------------------------|
D#|---------5--5-5-5-5-5-5-5---------5--5-5-5-5-7-|
A#|-2--2-5--5--5-5-5-5-5-5-5-2--2-5--5--5-5-5-5-7-|
F |-2--2-5--3--3-3-3-3-3-3-3-2--2-5--3--3-3-3-3-5-|
C |-0--0-3-------------------0--0-3---------------|

C |--------------------------------------------------|
G |--------------------------------------------------|
D#|---------5--5-5-5-5-5-5-5----------------2------2-|
A#|-2--2-5--5--5-5-5-5-5-5-5-5--5-5--5------2------2-|
F |-2--2-5--3--3-3-3-3-3-3-3-5--5-5--5--0-0-0--0-0-0-|
C |-0--0-3-------------------3--3-3--3---------------|
                                      x x    x x

[Pre-Solo:]

C |--------------------------|
G |--------------------------|
D#|--------------------------|
A#|-2--2-----2--2-----2------|
F |-2--2-----2--2-----2------|
C |-0--0-0-0-0--0-0-0-0--0-0-|


[Solo]

C |-----------------14-14b--14-------------------------------|
G |-15b--15------17------------17----------------------------|
D#|-----------16------------------16\-----12-14-14b-12----12-|
A#|------------------------------------14--------------14----|
F |----------------------------------------------------------|
C |----------------------------------------------------------|


C |--------------------------------------------------------------|
G |--------------------------------------------------------------|
D#|-------------12-----------12-----------14b--14b--14b--14b--12-|
A#|-14-12-14-14-----14-12-14-----14-12-14------------------------|
F |--------------------------------------------------------------|
C |--------------------------------------------------------------|


C |-------15-14--------------17b--17-15-17/19-----22b--22--19-|
G |----17-------17--------17------------------17--------------|
D#|-16-------------14--16-------------------------------------|
A#|-----------------------------------------------------------|
F |-----------------------------------------------------------|
C |-----------------------------------------------------------|

                   /Bend to 23 and hold
C |-20-19----------------------------------------------------|
G |-------20-------------------------------------------------|
D#|----------19-21b-23-23-23-23-23-23-23-23-23-23-21b--19-21-|
A#|----------------------------------------------------------|
F |----------------------------------------------------------|
C |----------------------------------------------------------|


C |---------------------12--15p12-14p12----15p12-14p12----|
G |------------15--12\------------------12-------------12-|
D#|-12-14-14b---------------------------------------------|
A#|-------------------------------------------------------|
F |-------------------------------------------------------|
C |-------------------------------------------------------|


C |-15p12-14p12----15p12-14p12----15p12-14p12----15p12-17p12-|
G |-------------12-------------12-------------12-------------|
D#|----------------------------------------------------------|
A#|----------------------------------------------------------|
F |----------------------------------------------------------|
C |----------------------------------------------------------|


C |-15p12-----17p12-15p12----17p12-15p12----17p12-15p12----17p15-15p12----17p12-|
G |-------12--------------12-------------12-------------12-------------12-------|
D#|-----------------------------------------------------------------------------|
A#|-----------------------------------------------------------------------------|
F |-----------------------------------------------------------------------------|
C |-----------------------------------------------------------------------------|


C |----------------------------------------------|
G |----------------------------------------------|
D#|-16-12-14-16-12-14-16-12-14-16-------11-12-11-|
A#|-------------------------------12-14----------|
F |----------------------------------------------|
C |----------------------------------------------|


C |-10b------------------------------------------------------------------|
G |-----12h13p12p10-12p10----10b-----10h12h13p12p10----10h12h13p12p10----|
D#|-----------------------12------12----------------12----------------12-|
A#|----------------------------------------------------------------------|
F |----------------------------------------------------------------------|
C |----------------------------------------------------------------------|


C |----------------|
G |----------------|
D#|-11h12p11-------|
A#|----------12-14-|
F |----------------|
C |----------------|


[Outro]

C |-------------------------------|
G |-------------------------------|
D#|---------5-4-------------------|
A#|-2--5-2--5-4--4-5--------------|
F |-2--5-2--3-2--4-5--------------|
C |-0--3-0-------2-3--3-3-3-3-3-3-|
                    x x x x x x


************************************

| b  Bend
| \  Slide down
| /  Slide up
| p  Pull-off
| h  Hammer-on

************************************
Suggest correction
comments
print report bad tab
21 comments total. Showing first comments.
+2 reply
zman919191 227 Jul 26, 2005 12:00 AM

wheres the other guitars parts?

0 reply
metaljunkie22 172 Jul 26, 2005 12:00 AM

wait what are the tunings for each string?

0 reply
IbaNeZhoBo 10 Aug 08, 2005 12:00 AM

solo is wrong

guest
You may want to rate the tab now too:
select rating
Wanna post a correction for this tab? Suggest correction