Oops, an error
Loading. Please wait.

Stricken Bass Tab

version 2
8,088 views 3 this week
2 commentsread comments
1 2 3 4 5
accurate
x 5
add to favorites
launch autoscroll
font size
0
reset
guitar tuner
Tab Pro tools
  • play this tab
  • loop segment
  • change instrument
  • show fretboard
  • metronome
×
Best way to learn
"Stricken"
Autoscroll
slow
fast
+/-
esc
set tempo
stop
Difficulty
advanced
-------------------------------------------------------------------------------
			     Stricken-Disturbed
-------------------------------------------------------------------------------

Tabbed By : rpk10000
e-mail: nitrofish6@yahoo.com

Tuning:eadg

intro
G|---------------------------------------------------------------------------|
D|---65----3------63-----------65----3---------------------------------------| x2
A|363--3636-6--363--363665--363--3636-6-6------------------------------------|
E|---------------------------------------------3-----------------------------|

verse
G|---------------------------------------------------------------------------|
D|---------------3---------------33------------------3-----------------------| x2
A|33-33-33-33-36---33-33-33-33-66--66--33-33-33-33-36---6--------------------|
E|------------------------------------------------------------3--------------|

chorus
G|---------------------------------------------------------------------------|
D|---------------------------------------------------------------------------|
A|3---------1--3---------1--3---------1--6-----------------------------------|
E|--1-4-1-4------1-4-1-4------1-4-1-4-----------3----------------------------|

G|---------------------------------------------------------------------------|
D|---------------------------------------------------------------------------|
A|3---------1--3---------1--6------6-----------------------------------------|
E|--1-4-1-4------1-4-1-4------1-4--------3-----------------------------------|

intro
verse x2
chorus

bridge
G|---------------------------------------------------------------------------|
D|---------------------------------------------------------------------------|
A|33-33-33-33-33-33-33-33-33-33-33-33----------------------------------------|
E|---------------------------------------------------------------------------|

solo
G|---------------------------------------------------------------------------|
D|---------------------------------------------------------------------------|
A|-------------------------------------------------------------------6653----|
E|3---3----3-3-3-3-3-3-3-------3---3--3--3--3--3-3--------3------1111----6---|

verse

chorus 2
G|---------------------------------------------------------------------------|
D|---------------------------------------------------------------------------|
A|3---------1-3---------1-3---------1-6--------------------------------------|
E|--1-4-1-4-----1-4-1-4-----1-4-1-4-----------3------------------------------|

G|---------------------------------------------------------------------------|
D|---------------------------------------------------------------------------|
A|3---------1-3---------1-3---------1--6-----------------------6-------------|
E|--1-4-1-4-----1-4-1-4-----1-4-1-4-----------------3---------------------3--|

outro
G|---------------------------------------------------------------------------|
D|---65----------------------------------------------------------------------| x7
A|363--7633333---------------------------------------------------------------|
E|---------------------------------------------------------------------------|


| /  slide up
| \  slide down
| h  hammer-on
| p  pull-off
| ~  vibrato
| +  harmonic
| x  Mute note
===============================================================================
comments
print report bad tab
2 comments total.
0 reply
BaSSiSt_METAL wrote on May 4 2008, 05:56 pm

disturbed plays in drop c

0 reply
ekszes wrote on May 25 2008, 04:10 am

yeah man, drop C.... E sounds crap, doesnt do the song justice.

I want to post or [tab]
guest
You may want to rate the tab now too:
select rating
Please do not post tabs as comments. Select "correction" instead!