Oops, an error
Loading. Please wait.

Stricken Tab

22,788 views 9 this week
8 commentsread comments
1 2 3 4 5
worth learning
x 11
add to favorites
launch autoscroll
font size
0
reset
how to read this tab
guitar tuner
Autoscroll
slow
fast
+/-
esc
set tempo
stop
Help us to improve Ultimate-Guitar.com Take our survey!
×
Artist: Disturbed
Song: Stricken
Album: 10,000 fists

Usually Dan Donegan songs are in Drop Db but this time he used Drop C.


Intro
||----------------------------------|
||----------------------------------|
||----10-7--------------------------| Repeat
||--0-10-7-x-8-7-x-2-3-x-3-5-x-3-5--|   3x
||--0-8--5-x-8-7-x-2-3-x-3-5-x-3-5--|
||--0------x-8-7-x-2-3-x-3-5-x-3-5--|

then:
||---------------------|
||---------------------|
||--5555555--99999999--|
||--3333333--77777777--|
||--3333333--77777777--|
||--3333333--77777777--|

Verse
||--------------------|-------------------|--------------------|
||--------------------|-------------------|--------------------|
||--------------------|-------------------|--------------------|
||--------------------|-------------------|--------------------|
||--0-00-00-00-00-35--|----------0334430--|--0-00-00-00-00-35--|
||--0-00-00-00-00-35--|--0-00-00-0334430--|--0-00-00-00-00-35--|
PM  . .. .. .. .. ..     . .. .. .......     . .. .. .. .. ..

||---------------------|
||---------------------|
||--5555555--99999999--|
||--3333333--77777777--|
||--3333333--77777777--|
||--3333333--77777777--|

Chorus
||--------------------------|       |---------------|
||--------------------------|       |---------------|
||------5-1010101010101010--|  3x   |-5-555-777-777-|
||--0--03-8-8-8-8-8-8-8-8---| then: |-3-333-555-555-|
||--0--03-8-8-8-8-8-8-8-8---|       |-3-333-555-555-|
||--0--03-8-8-8-8-8-8-8-8---|       |-3-333-555-555-|
PM     .                                    ..  ..

||--------------------------|       |---------------------------|
||--------------------------|       |---------------------------|
||------5-1010101010101010--|  2x   |-----5-101010101010101010--|
||--0--03-8-8-8-8-8-8-8-8---| then: |-0-0-3-8-8-8-8-8-8-8-8-8---|
||--0--03-8-8-8-8-8-8-8-8---|       |-0-0-3-8-8-8-8-8-8-8-8-8---|
||--0--03-8-8-8-8-8-8-8-8---|       |-0-0-3-8-8-8-8-8-8-8-8-8---|
PM     .                              .

then:
|---------------|
|---------------|
|-5-555-777-777-|
|-3-333-555-555-|
|-3-333-555-555-|
|-3-333-555-555-|
PM      ..  .. 

Bridge
||----------------|
||----------------|
||----------------|
||----------------|
||--0-000-0-0-00--|
||--0-000-0-0-00--|
PM    ..    . ..

Solo
||---------------------------------------------------------------|
||--13/15~~--13~~-------17h16h17-15-13---------------------------|
||----------------14-16----------------14------------------------|
||-----------------------------------------12-15-17-17-15-12-----|
||-----------------------------------------------------------15--|
||---------------------------------------------------------------|

||---------------------------------------------------------------------|
||---------------------------------------------------------------------|
||---------------------------------------------------------------------|
||-----------------------------------------19-17-19-17-19-17-19-17-----|
||--15h17-15-------15h17-15-------15h17-15-------------------------17--|
||----------191919---------191919--------------------------------------|

||-----------------------------17--15----15-17----22-20-17-15-13----------|
||--15-17h18-17-15-------15-18--------18-------15----------------15-13-15-|
||-----------------14~~---------------------------------------------------|
||------------------------------------------------------------------------|
||------------------------------------------------------------------------|
||------------------------------------------------------------------------|

||--------------------------------------------|
||--17-1717171717171717-15h13h15--------------|
||-------------------------------14-17-17-14--|
||--------------------------------------------|
||--------------------------------------------|
||--------------------------------------------|

I took the rest of the solo from the other version because i think it's the right way to play it:

||-15p12-14p12----15p12-14p12----15p12-14p12----15p12-17p12-|
||-------------12-------------12-------------12-------------|
||----------------------------------------------------------|
||----------------------------------------------------------|
||----------------------------------------------------------|
||----------------------------------------------------------|

||-15p12-----17p12-15p12----17p12-15p12----17p12-15p12----17p15-15p12--|
||-------12--------------12-------------12-------------12--------------|
||---------------------------------------------------------------------|
||---------------------------------------------------------------------|
||---------------------------------------------------------------------|
||---------------------------------------------------------------------|

||----------------------------------------------|
||----------------------------------------------|
||-16-12-14-16-12-14-16-12-14-16-------11-12-11-|
||-------------------------------12-14----------|
||----------------------------------------------|
||----------------------------------------------|

||-10b------------------------------------------------------------------|
||-----12h13p12p10-12p10----10b-----10h12h13p12p10----10h12h13p12p10----|
||-----------------------12------12----------------12----------------12-|
||----------------------------------------------------------------------|
||----------------------------------------------------------------------|
||----------------------------------------------------------------------|

||----------------|
||----------------|
||-11h12p11-------|
||----------12-14-|
||----------------|
||----------------|

Pre-Verse
||------------------|
||------------------|
||--55-55-55-55-55--|
||--33-33-33-33-33--|
||--33-33-33-33-33--|
||--33-33-33-33-33--|

*just put your fingers on the strings but dont push.

||---------------------|
||---------------------|
||--5555555--99999999--|
||--3333333--77777777--|
||--3333333--77777777--|
||--3333333--77777777--|

Verse
||--------------------|-------------------|--------------------|
||--------------------|-------------------|--------------------|
||--------------------|-------------------|--------------------|
||--------------------|-------------------|--------------------|
||--0-00-00-00-00-35--|----------0334430--|--0-00-00-00-00-35--|
||--0-00-00-00-00-35--|--0-00-00-0334430--|--0-00-00-00-00-35--|
PM  . .. .. .. .. ..     . .. .. .......     . .. .. .. .. ..

Chorus
||--------------------------|       |---------------|
||--------------------------|       |---------------|
||------5-1010101010101010--|  3x   |-5-555-777-777-|
||--0--03-8-8-8-8-8-8-8-8---| then: |-3-333-555-555-|
||--0--03-8-8-8-8-8-8-8-8---|       |-3-333-555-555-|
||--0--03-8-8-8-8-8-8-8-8---|       |-3-333-555-555-|
PM     .                                    ..  ..

||--------------------------|       |---------------------------|
||--------------------------|       |---------------------------|
||------5-1010101010101010--|  2x   |-----5-101010101010101010--|
||--0--03-8-8-8-8-8-8-8-8---| then: |-0-0-3-8-8-8-8-8-8-8-8-8---|
||--0--03-8-8-8-8-8-8-8-8---|       |-0-0-3-8-8-8-8-8-8-8-8-8---|
||--0--03-8-8-8-8-8-8-8-8---|       |-0-0-3-8-8-8-8-8-8-8-8-8---|
PM     .                              .

then:
||---------------------|
||---------------------|
||--77777777777777777--|
||--55555555555555555--|
||--55555555555555555--|
||--55555555555555555--|

Outro
||-----------------------------|
||-----------------------------|
||----10-7---------------------|
||--0-10-7-x-8-7-xxxxxxx--3-5--|   
||--0-8--5-x-8-7-xxxxxxx--3-5--|
||--0------x-8-7-xxxxxxx--3-5--|

End With :
||-----|
||-----|
||-----|
||--0--|
||--0--|
||--0--|
Suggest correction
comments
print report bad tab
8 comments total. Showing first comments.
0 reply
metal_man696 10 wrote on August 22 2005, 12:00 am

can you tell me which string the pinch harmonic is on

0 reply
Andrew Zara 41,509 wrote on August 22 2005, 12:00 am

The solos a little off and you left and obvious pinch harmonic out.And to let metal_man696 know the pinch harmonic is on the g string 7th fret.you get 3 stars

0 reply
Operator (CA) 715 wrote on September 23 2005, 03:02 pm

yeah i realised that i forgot the part with the pinch harmonic after posting it...sry

guest
You may want to rate the tab now too:
select rating
Wanna post a correction for this tab? Suggest correction