Oops, an error
Loading. Please wait.

Stricken Bass Tab

version 4
9,036 views 9 this week
2 commentsread comments
1 2 3 4 5
accurate
x 3
add to favorites
launch autoscroll
font size
0
reset
guitar tuner
Autoscroll
slow
fast
+/-
esc
set tempo
stop
Help us to improve Ultimate-Guitar.com Take our survey!
×
Contributor
Difficulty
novice
ok this is how i play stricken with my 4 string
normal tunings

G||------------------------||-----------------------||
D||------------------------||-----------------------||
A||-8-7--------------------||8-7--------------------||
E||0---8-7--2-3--3-5--3-6-0||---8-7--2-3--3-5--3-6-0||

G||------------------------------------------||
D||------------------------------------------||   
A||8-7---------------------------------------||      (2x)
E||---2-3--3-5--3-6-3-3-3-3-3-7-7-7-7-7-7-7-7||
_________________________________________________________________

G||x-x--x-x--x-x--x-x--x-x-x||x-x--x-x--x--x-x-x-x-x||
D||x-x--x-x--x-x--x-x--x-x-x||x-x--x-x--x--x-x-x-x-x||
A||x-x--x-x--x-x--x-x--x-x-x||x-x--x-x--x--x-x-x-x-x||
E||x-x--x-x--x-x--x-x--x-x-x||x-x--x-x--x--x-x-x-x-x||

G||x-x--x-x--x-x--x-x---------------------------||
D||x-x--x-x--x-x--x-x---------------------------||
A||x-x--x-x--x-x--x-x---------------------------||    (2x)
E||x-x--x-x--x-x--x-x--3-3-3-3-3-7-7-7-7-7-7-7-7||
____________________________________________________________

G||---------------------||-------------||---------------------||
D||---------------------||-------------||---------------------||
A||4--4-4-4/6--6-6-6-6-6||6--4--4-4-4-4||4--4-4-4/6--6-6-6-6-6||
E||---------------------||-------------||---------------------||

G||------------------------||---------------------||-------------||
D||------------------------||---------------------||-------------||
A||6--4--5-----------------||4--4-4-4/6--6-6-6-6-6||6--4--4-4-4-4||
E||--------5-5-5--3-3-3-3-3||---------------------||-------------||

G||-----------||------------------------||
D||-----------||------------------------||
A||6-6--4-4--3||6--4--5-----------------||     (1x)
E||-----------||--------5-5-5--3-3-3-3-3||
_______________________________________________________________


G||------------------------||-----------------------||
D||------------------------||-----------------------||
A||-8-7--------------------||8-7------------------\/||------------------<
E||0---8-7--2-3--3-5--3-6-0||---8-7--2-3--3-5--3-6-0||(2nd time no 3-6-0^
                                                        guitar does bend)

G||------------------------------------------||
D||------------------------------------------||   
A||8-7---------------------------------------||      (2x)
E||---2-3--3-5--3-6-3-3-3-3-3-7-7-7-7-7-7-7-7||
_________________________________________________________________

G||x-x--x-x--x-x--x-x--x-x-x||x-x--x-x--x--x-x-x-x-x||
D||x-x--x-x--x-x--x-x--x-x-x||x-x--x-x--x--x-x-x-x-x||
A||x-x--x-x--x-x--x-x--x-x-x||x-x--x-x--x--x-x-x-x-x||
E||x-x--x-x--x-x--x-x--x-x-x||x-x--x-x--x--x-x-x-x-x||

G||x-x--x-x--x-x--x-x---------------------------||
D||x-x--x-x--x-x--x-x---------------------------||
A||x-x--x-x--x-x--x-x---------------------------||    (2x)
E||x-x--x-x--x-x--x-x--3-3-3-3-3-7-7-7-7-7-7-7-7||
____________________________________________________________

G||---------------------||-------------||---------------------||
D||---------------------||-------------||---------------------||
A||4--4-4-4/6--6-6-6-6-6||6--4--4-4-4-4||4--4-4-4/6--6-6-6-6-6||
E||---------------------||-------------||---------------------||

G||------------------------||---------------------||-------------||
D||------------------------||---------------------||-------------||
A||6--4--5-----------------||4--4-4-4/6--6-6-6-6-6||6--4--4-4-4-4||
E||--------5-5-5--3-3-3-3-3||---------------------||-------------||

G||-----------||------------------------||
D||-----------||------------------------||
A||6-6--4-4--3||6--4--5-----------------||     (1x)
E||-----------||--------5-5-5--3-3-3-3-3||
_______________________________________________________________

G||------------------||
D||------------------||
A||------------------||   (16x during solo)
E||0m--0-0-0m--0-0-0m||
_______________________________________________________
after solo
G||0-0m--0-0m--0-0m--0-0m--3-5-3||0-0m--0-0m--0m--3-5-3-4-3||
D||-----------------------------||-------------------------||
A||-----------------------------||-------------------------||
E||-----------------------------||-------------------------||

G||x-x--x-x--x-x--x-x---------------------------||
D||x-x--x-x--x-x--x-x---------------------------||
A||x-x--x-x--x-x--x-x---------------------------||
E||x-x--x-x--x-x--x-x--3-3-3-3-3-7-7-7-7-7-7-7-7||

G||x-x--x-x--x-x--x-x--x-x-x||x-x--x-x--x--x-x-x-x-x||
D||x-x--x-x--x-x--x-x--x-x-x||x-x--x-x--x--x-x-x-x-x||
A||x-x--x-x--x-x--x-x--x-x-x||x-x--x-x--x--x-x-x-x-x||
E||x-x--x-x--x-x--x-x--x-x-x||x-x--x-x--x--x-x-x-x-x||

G||x-x--x-x--x-x--x-x---------------------------||
D||x-x--x-x--x-x--x-x---------------------------||
A||x-x--x-x--x-x--x-x---------------------------||
E||x-x--x-x--x-x--x-x--3-3-3-3-3-7-7-7-7-7-7-7-7||
____________________________________________________________

G||---------------------||-------------||---------------------||
D||---------------------||-------------||---------------------||
A||4--4-4-4/6--6-6-6-6-6||6--4--4-4-4-4||4--4-4-4/6--6-6-6-6-6||
E||---------------------||-------------||---------------------||

G||------------------------||---------------------||-------------||
D||------------------------||---------------------||-------------||
A||6--4--5-----------------||4--4-4-4/6--6-6-6-6-6||6--4--4-4-4-4||
E||--------5-5-5--3-3-3-3-3||---------------------||-------------||

G||-----------||------------------------||
D||-----------||------------------------||
A||6-6--4-4--3||6--4--5-----------------||     (1x)
E||-----------||--------5-5-5--3-3-3-3-3||
_______________________________________________________________

im not too sure about what you do now but after that you do

G||-----------------------||
D||-----------------------||
A||-8-7-------------------||   (8x)
E||0---8-7--2-3--5-5-5-5-5||

well thats it    its a pretty easy song to play
comments
We did not receive enough feedback on this tab! Please rate:
print report bad tab
1 2 3 4 5
2 comments total.
0 reply
faKtion68 11 wrote on January 2 2008, 07:28 pm

its the right tab..but there is definitly some bass throughout the verse

0 reply
gmbassist 33 wrote on January 7 2008, 09:50 pm

haha not to be mean or anything cuz my ear for music is slim to none but this tab is way off i have the book. you dont
palm mute all the strings on the verse and the tuning for a four string is C G C F from lowest to highest.

I want to post or [tab]
guest
You may want to rate the tab now too:
select rating
Please do not post tabs as comments. Select "correction" instead!