Oops, an error
Loading. Please wait.

Stricken Bass Tab

version 5
10,921 views 3 this week
no commentswrite comment
1 2 3 4 5
accurate
x 6
add to favorites
launch autoscroll
font size
0
reset
guitar tuner
Tab Pro tools
  • play this tab
  • loop segment
  • change instrument
  • show fretboard
  • metronome
×
Best way to learn
"Stricken"
Autoscroll
slow
fast
+/-
esc
set tempo
stop
Contributor
Difficulty
novice
alright i sent in this song before but 
i fixed some stuff and this ones better

normal tuning
intro
|---------------------------|-------------------------|
|---------------------------|-------------------------|
|--8-7----------------------|8-7----------------------|
|0------8-7--2-3--3-5--3-6-0|-----8-7--2-3--3-5--3-3-0|

|------------------------------------------------------|
|------------------------------------------------------|
|8-7---------------------------------------------------|
|-----8-7--2-3--3-5--3-6--3--3-3-5-5-3--7-7-7-7-8-8-8-0|

|---------------------------|-------------------------|
|---------------------------|-------------------------|
|--8-7----------------------|8-7----------------------|
|0------8-7--2-3--3-5--3-6-0|-----8-7--2-3--3-5--3-3-0|

|--------------------------------------------------------|
|---------------------------------------7-5--------------|
|8-7----------------------------------------7-6--5-3--0--|
|-----8-7--2-3--3-5--3-6--3--3-3-5-5-3------------------0|
_____________________________________________________________________
verse 2x
|-------------------------|------------------------|
|-------------------------|------------------------|
|-------------------------|------------------------|
|0-0--0-0--0-0--0-0--3-5-3|0-0--0-0--0--3-5-0-3-3-0|

|------------------------------------------------------|
|------------------------------------------------------|
|------------------------------------------------------|
|0-0--0-0--0-0--0-0--3-6--3--3-3-5-5-3--7-7-7-7-8-8-8-7|
____________________________________________________________________
chorus
|-----------------------------------------|
|-----------------------------------------|
|0--0--2/8-8--8-8-8-8---2-3--3-3-3-3-5-5-5|
|-----------------------------------------|

|------------------------------------------------|
|------------------------------------------------|
|0--0--2/8-8--8-8-8-8--2--3--3--3----------------|
|--------------------------------5-5-5--0-0-0-0-0|

|------------------------------------------------------------
|------------------------------------------------------------
|0--0--2/8-8--8-8-8-8---2-3--3-3-3-3-5-5-5--4-3--2/8--8-8-8-8
|------------------------------------------------------------

 -------------------------|
 -------------------------|
 3--3--3------------------|
 ---------5-5-5--0-0-0-0-0|
_______________________________________________________________________
   1x
|---------------------------|---------------------|
|---------------------------|---------------------|
|--8-7----------------------|8-7------------------|
|0------8-7--2-3--3-5--3-6-0|-----8-7--2-3--3-5---|

|--------------------------------------------------------|
|--------------------------------------------------------|
|--8-7---------------------------------------------------|
|0------8-7--2-3--3-5--3-6--3--3-3-5-5-3--7-7-7-7-8-8-8-7|
_______________________________________________________________________
verse 2x
|-------------------------|------------------------|
|-------------------------|------------------------|
|-------------------------|------------------------|
|0-0--0-0--0-0--0-0--3-5-3|0-0--0-0--0--3-5-0-3-3-0|

|------------------------------------------------------|
|------------------------------------------------------|
|------------------------------------------------------|
|0-0--0-0--0-0--0-0--3-6--3--3-3-5-5-3--7-7-7-7-8-8-8-7|
_____________________________________________________________________
chorus
|-----------------------------------------|
|-----------------------------------------|
|0--0--2/8-8--8-8-8-8---2-3--3-3-3-3-5-5-5|
|-----------------------------------------|

|------------------------------------------------|
|------------------------------------------------|
|0--0--2/8-8--8-8-8-8--2--3--3--3----------------|
|--------------------------------5-5-5--0-0-0-0-0|

|------------------------------------------------------------
|------------------------------------------------------------
|0--0--2/8-8--8-8-8-8---2-3--3-3-3-3-5-5-5--4-3--2/8--8-8-8-8
|------------------------------------------------------------

 -------------------------|
 -------------------------|
 3--3--3------------------|
 ---------5-5-5--0-0-0-0-0|
_____________________________________________________________________

for the part before the solo hit and open
note on the 4th string every time the guitar
doesn't hit muted notes...this alternates during 
the solo with other notes on the 4th string
that i couldnt figure out..
____________________________________________________________
after solo 1x
|--------------------------------------------------------|
|--------------------------------------------------------|
|--------------------------------------------------------|
|0-0--0-0--0-0--0-0--3-6--3--3-3-3-5-5-3--7-7-7-7-8-8-8-7|

|-------------------------|------------------------|
|-------------------------|------------------------|
|-------------------------|------------------------|
|0-0--0-0--0-0--0-0--3-5-3|0-0--0-0--0--3-5-0-3-3-0|

|------------------------------------------------------|
|------------------------------------------------------|
|------------------------------------------------------|
|0-0--0-0--0-0--0-0--3-6--3--3-3-5-5-3--7-7-7-7-8-8-8-7|
____________________________________________________________________
chorus
|-----------------------------------------|
|-----------------------------------------|
|0--0--2/8-8--8-8-8-8---2-3--3-3-3-3-5-5-5|
|-----------------------------------------|

|------------------------------------------------|
|------------------------------------------------|
|0--0--2/8-8--8-8-8-8--2--3--3--3----------------|
|--------------------------------5-5-5--0-0-0-0-0|

|------------------------------------------------------------
|------------------------------------------------------------
|0--0--2/8-8--8-8-8-8---2-3--3-3-3-3-5-5-5--4-3--2/8--8-8-8-8
|------------------------------------------------------------

 -------------------------|
 -------------------------|
 3--3--3------------------|
 ---------5-5-5--0-0-0-0-0|
_______________________________________________________________
after that this part was tricky and i 
dont know if i got it but do this..
|-----------------|-----------------|---------------------|
|-----------------|-----------------|---------------------|
|2--2--2-2--2--2-2|3--3--3-3--3--3-3|2--2--2-2--2-2-2--2-2|
|-----------------|-----------------|---------------------|
____________________________________________________________________
outro  8x
|--------------------------|
|--------------------------|
|--8-7---------------------|
|0------8-7--2-3--5-5-5-5-5|
comments
print report bad tab
I want to post or [tab]
guest
You may want to rate the tab now too:
select rating
Please do not post tabs as comments. Select "correction" instead!