Oops, an error
Loading. Please wait.

Stricken Bass Tab

version 6
1,030 views 3 this week
no commentswrite comment
1 2 3 4 5
please rate
add to favorites
launch autoscroll
font size
0
reset
guitar tuner
Autoscroll
slow
fast
+/-
esc
set tempo
stop
Help us to improve Ultimate-Guitar.com Take our survey!
×
Difficulty
Tuning
intermediate
C F A# D# G C
 tab by: lewis
   its my first tab
   i think ive got everything in there
   enjoy !

   intro part 1
1 ---------------------------|
2 ---------------------------|
3 -85------------------------|
4 0--0-87-0-23-0-35-0-36-0---|

  intro part 2
1 ---------------------------|
2 ---------------------------|
3 -85------------------------|
4 0--0-87-0-23-0-35-0-3330---|
  play intro in this order:
  part 1
  part 2
  part 1
1 --------22222222-----------|
2 ---------------------------|
3 ---------------------------|
4 33333333-------------------|
  play all the above twice

   verse
1 --------------------------------------------------------22222222---|
2 -------------------------------------------------------------------|
3 -------------------------------------------------------------------| x2
4 -00-00-00-00-360-00-00-0-360330-00-00-00-00-360-33333333-----------|

  chorus part 1
1 ----------------|
2 ----------------|
3 ----1-11110000--|
4 0-03------------|

  chorus part 2
1 -----------------|
2 -----------------|
3 ----1-1111/3333--|
4 0-03-------------|

  chorus part 3
1 ----------------------------|
2 ----------------------------|
3 ----1-11110000--------------|
4 0-03----------333-3-555-111-|
 play the chorus part 1,2,3 then part 1,2 again and then the chorus part 3 changes pause 
and miss out the first open note
  chorus part 3
1 -----------------------------|
2 -----------------------------|
3 ----1-11110000---------------|
4 --03----------333-3-555-111--|

 repeat all the above one more time but play intro part 1,2,1 once


  solo
1----------------------------------------------------------------------------|
2----------------------------------------------------------------------------|
3-------------------------1-1--1-1-11-1-1--1-1-1113--------------------------|
40-0--0-0-00-0-0--0-0-0003-------------------------0-0--0-0-00-0-0--0-0-0003-|

1 ------------------355553---------------------------------------|
2 ------------------------3--------------------------------------|
3 1-1--1-1-11-1-1--1-------3-------------------------1-1--1-1-11-|
4 --------------------------0-0--0-0-00-0-0--0-0-0003------------|

1 -----------------------------------------------|
2 -----------------------------------------------|
3 2-3333-5555-8888-7-5-0-0-0-0-0-0-0-0---------3-|
4 ------------------------------------555-33-22--|

  come in near the end of the verse
1 ------------------------------------------222222-|
2 -------------------------------------------------|
3 -------------------------------------------------|
4 -guitar plays verse-00-00-00-00-360-333333-------|

    verse
1 -----------------------------------------------------222222-|
2-------------------------------------------------------------|
3 ------------------------------------------------------------|
4 00-00-00-00-360-00-00-0-360330-00-00-00-00-360-333333-------|

   chorus
1 -------------------------------------------------------------|
2 -------------------------------------------------------------|
3 ----1-11110000----1-1111/3333-----1-11110000-----------------|
4 0-03----------0-03-----------0-03-----------333-3-555-111----|

1 --------------------------------------------|
2 --------------------------------------------|
3 ----1-11110000----1-1111/3333----1-11110000-|
4 0-03----------0-03-----------0-03-----------|

1 ---------------------------------------------|
2 ---------------------------------------------|
3 ---------------------------------------------|  i think ? just guessed
4 1-1-1-1-11-0-0-0-0-00-1-1-1-1-11-0-0-0-0-00--|

 outro
1 --------------------------|
2 --------------------------|
3 -85-----------------------| x8
4 0--0-87-0-23-000000-36-0--|
Suggest correction
What's this?
You can suggest a correction to this tab. Community and Mods will review your correction and vote to approve or reject it.
comments
We did not receive enough feedback on this tab! Please rate:
print report bad tab
1 2 3 4 5
guest
You may want to rate the tab now too:
select rating
Please do not post tabs as comments. Select "correction" instead!