Oops, an error
Loading. Please wait.

Stupify Tab

version 1
version 1

Whole song

94,420 views 57 this week
28 commentsread comments
1 2 3 4 5
x 50
add to favorites
launch autoscroll
font size
0
reset
how to read this tab
guitar tuner
Autoscroll
slow
fast
+/-
esc
set tempo
stop
Help us to improve Ultimate-Guitar.com Take our survey!
×
Artist: Disturbed.
Song: Stupify.
Album: The Sickness(2000).
Tabbed By: Joe@Disturbed16.

Tuning: Db Ab Db Gb Bb Eb

Key: Palm Mute - X 
     Hammer On - h 

SWEET SONG!


[Intro/Chorus]

Eb|------------------------------------------------------|
Bb|------------------------------------------------------|
Gb|------------------------------------------------------|
Db|-8--0-----0---0-----3-------8--0-----0----------------|
Ab|-8--0-0-0-0---0-0-0-3-0-0-0-8--0-0-0-0--0-0-0-3h6-0-0-|
Db|-8--0-0-0-0---0-0-0-3-0-0-0-8--0-0-0-0--0-0-0-----0-0-|
   ------X-X-------X-X---X-X-X------X-X----X-X-X-----X-X-

Eb|------------------------------------------------------|
Bb|------------------------------------------------------|
Gb|------------------------------------------------------|
Db|-8--0-----0---0-----3-------8--0-----0----------------|
Ab|-8--0-0-0-0---0-0-0-3-0-0-0-8--0-0-0-0--0-0-0-0-0-0-0-|
Db|-8--0-0-0-0---0-0-0-3-0-0-0-8--0-0-0-0--0-0-0-0-0-0-0-|
   ------X-X-------X-X---X-X-X------X-X----X-X-X-X-X-X-X-

Eb|------------------------------------------------------|
Bb|------------------------------------------------------|
Gb|------------------------------------------------------|
Db|-8--0-----0---0-----3-------8--0-----0----------------|
Ab|-8--0-0-0-0---0-0-0-3-0-0-0-8--0-0-0-0--0-0-0-3h6-0-0-|
Db|-8--0-0-0-0---0-0-0-3-0-0-0-8--0-0-0-0--0-0-0-----0-0-|
   ------X-X-------X-X---X-X-X------X-X----X-X-X-----X-X-

Eb|----------------------------------------------------|
Bb|----------------------------------------------------|
Gb|----------------------------------------------------|
Db|-8--0-----0---0-----3-------8--0-----0--------------|
Ab|-8--0-0-0-0---0-0-0-3-0-0-0-8--0-0-0-0--0-0-0-0-0-0-|
Db|-8--0-0-0-0---0-0-0-3-0-0-0-8--0-0-0-0--0-0-0-0-0-0-|
   ------X-X-------X-X---X-X-X------X-X----X-X-X-X-X-X-


[Verse]

Eb|------------6-8---------------5-|
Bb|----------6-----------------4---|
Gb|--------------------------2-----|
Db|--------------------------------|
Ab|-0--0--0---------0--0--0--------|
Db|-0--0--0---------0--0--0--------|(x7)
   -X--X--X---------X--X--X--------

Eb|------------6-8-----------5-5-5-|
Bb|----------6---------------4-4-4-|
Gb|--------------------------2-2-2-|
Db|--------------------------------|
Ab|-0--0--0---------0--0--0--------|
Db|-0--0--0---------0--0--0--------|
   -X--X--X---------X--X--X--------


[Chorus]

[Pre-Verse]

Eb|------------------------------------------|
Bb|------------------------------------------|
Gb|------------------------------------------|
Db|------------------------------------------|
Ab|-0--0--0--------------0--0--0-------------|
Db|-0--0--0---8-8-8-8-8--0--0--0---0-0-0-0-0-|(x2)
   -X--X--X--------------X--X--X-------------


[Verse]

[Pre-Chorus]

Eb|------------------------------|
Bb|------------------------------|
Gb|------------------------------|
Db|-0----------------------------|
Ab|-0------------------------0-0-|
Db|-0------------------------0-0-|
   --------------------------X-X-

                  
Eb|----------------|    |----------5-5-5-|
Bb|----------------|    |----------4-4-4-|
Gb|----------------|    |----------2-2-2-|
Db|----------------|(x3)|----------------|
Ab|-0---0---0---0--|    |-0--0--0--------|
Db|-0---0---0---0--|    |-0--0--0--------|
   -X---X---X---X--      -X--X--X--------


[Chorus]


[Interlude]

Eb|----------------|    |---------|
Bb|----------------|    |---------|
Gb|----7----8----8-|    |----7----|
Db|-0-----0----0---|(x7)|-0-------|
Ab|----------------|    |---------|
Db|----------------|    |-------0-|

Eb|---------------------------------------|
Bb|---------------------------------------|
Gb|---------------------------------------|
Db|-0--3--0--3--0--1--0--3--0--3--0--1--0-|
Ab|-0--3--0--3--0--1--0--3--0--3--0--1--0-|
Db|-0--3--0--3--0--1--0--3--0--3--0--1--0-|

Use a Wah Pedal if you have one on this riff and set it for a phaser type distortion.
Eb|-----------------------------------------|
Bb|-----------------------------------------|
Gb|-----------------------------------------|
Db|-0--3--0--3--0--1--0--3--0--3--0--1-1--0-|
Ab|-0--3--0--3--0--1--0--3--0--3--0--1-1--0-|
Db|-0--3--0--3--0--1--0--3--0--3--0--1-1--0-|

Eb|------------------------------------------------------|
Bb|------------------------------------------------------|
Gb|------------------------------------------------------|
Db|-8--0-----0-----------------1--0-----0----------------|
Ab|-8--0-0-0-0--0-0-0-0-0-0-0--1--0-0-0-0--0-0-0-0-0-0-0-|
Db|-8--0-0-0-0--0-0-0-0-0-0-0--1--0-0-0-0--0-0-0-0-0-0-0-|(x3)
   ------X-X----X-X-X-X-X-X-X-------X-X----X-X-X-X-X-X-X-

Eb|---------------------------------------------------------|
Bb|---------------------------------------------------------|
Gb|---------------------------------------------------------|
Db|-8--0-----0-----------------1----------1----------1------|
Ab|-8--0-0-0-0--0-0-0-0-0-0-0--1--0-0-0-0-1--0-0-0-0-1--0-0-|
Db|-8--0-0-0-0--0-0-0-0-0-0-0--1--0-0-0-0-1--0-0-0-0-1--0-0-|
   ------X-X----X-X-X-X-X-X-X-----X-X-X-X----X-X-X-X----X-X-

Eb|---------------------------------------------------------|
Bb|---------------------------------------------------------|
Gb|---------------------------------------------------------|
Db|-------------------------------1--0-----0----------------|
Ab|-0-0--0-0--0-0--0-0-0-3h6-0-0--1--0-0-0-0--0-0-0-3h6-0-0-|
Db|-0-0--0-0--0-0--0-0-0-----0-0--1--0-0-0-0--0-0-0-----0-0-|(x4)
   -X-X--X-X--X-X--X-X-X-----X-X-------X-X----X-X-X-----X-X-

Eb|--------------------------|
Bb|--------------------------|
Gb|--------------------------|
Db|----------------------1h3-|
Ab|-0-0--0-0--0-0--0-0-0-1h3-|
Db|-0-0--0-0--0-0--0-0-0-1h3-|(x4)
    X-X--X-X--X-X--X-X-X-----

Eb|--------------------------|
Bb|--------------------------|
Gb|--------------------------|
Db|-0-0--0-0--0-0--------1h3-|
Ab|-0-0--0-0--0-0--0-0-0-1h3-|
Db|-0-0--0-0--0-0--0-0-0-1h3-|(x4)
   ----------------X-X-X-----


[Outro]

Eb|-----------|
Bb|-----------|
Gb|-----------|
Db|-1-0---0-1-| X1 End With Force!
Ab|-1-0---0-1-|
Db|-1-0---0-1-|



LYRICS:


[Verse 1]

i've been waiting my whole life for just one
and all i needed was just one
how can you say that you don't give a
i find myself stupified, coming back again
all i wanted was just one
one tiny little innocent
and when i feel like i'm shit out of
i find myself stupified, coming back again

why, do you like playing around with
my narrow scope of reality
i can feel it all start slippin'
i think i'm breaking down
why do you like playing around with
my narrow scope of reality
i can feel it all start slippin' away


[Chorus]

see but i don't get it
don't you think maybe we can put it on credit?
don't you think it can take control when i don't 
let it?
i get stupified
it's all the same you say, live with it
but i don't get it
don't you think maybe we can put it on credit?
don't you think it can take control when i don't
let it?
i get stupified


[Verse 2]

all the people in the left wing
and all the people in the right wing
and all the people in the underground
i find myself stupified, coming back again
all the people in the high rise
and all the people in the projects
and all la hente in the barrio (rock)
i find myself stupified, coming back again


[Interlude]

don't deny me
oh baby now, don't deny me
and darling don't be afraid

look in my face stare in my soul, i begin to
stupify


************************************

| h  Hammer-on
| b  Bend
| X  dead note

************************************
Suggest correction
comments
print report bad tab
28 comments total. Showing first comments.
0 reply
Joe@Disturbed16 200 Feb 22, 2003 12:00 AM

HEY ALL, I HAVE QUITE A FEW TABS ON RIGHT NOW, SO IF U LIKE ANY OF THESE PLZ CLICK ON MORE TABS BY JOE@DISTURBED16 AND RATE MY OTHER TABS. I WOULD REALLY APPRIECIATE IT! :)

0 reply
sane_person 396 Apr 12, 2003 12:00 AM

sweet tab

0 reply
Joe@Disturbed16 200 Apr 22, 2003 12:00 AM

Thx bro!

guest
You may want to rate the tab now too:
select rating
Wanna post a correction for this tab? Suggest correction