Oops, an error
Loading. Please wait.

Stupify Bass Tab

version 2
version 2

Whole song

10 views 1 this week
no commentswrite comment
1 2 3 4 5
3 more votes to show rating
add to favorites
launch autoscroll
font size
0
reset
guitar tuner
Autoscroll
slow
fast
+/-
esc
set tempo
stop
Help us to improve Ultimate-Guitar.com Take our survey!
×
Author
Difficulty
Tuning
intermediate
C# G# E B F# C#
Disturbed: Stupify              Tuning: C# G# C# F#

[Chorus]
F#|-----------------------------------------------------|
C#|-----------------------------------------------------|
G#|---------------------------------------------3-6-----|
C#|-8~-0--0-0~-0-0-0-3-0-0-0-0-8~-0--0-0~-0-3-0-----0-0-|

F#|-----------------------------------------------------|
C#|-----------------------------------------------------|
G#|-----------------------------------------------------|
C#|-8~-0--0-0~-0-0-0-3-0-0-0-0-8~-0--0-0~-0-3-0-3-3-3-3-|

F#|-----------------------------------------------------|
C#|-----------------------------------------------------|
G#|---------------------------------------------3-6-----|
C#|-8~-0--0-0~-0-0-0-3-0-0-0-0-8~-0--0-0~-0-3-0-----0-0-|

F#|-----------------------------------------------------|
C#|-----------------------------------------------------|
G#|-----------------------------------------------------|
C#|-8~-0--0-0~-0-0-0-3-0-0-0-0-8~-0--0-0~-0-0-0-0-0-0-0-|


[Verse]
F#|-----------------|
C#|-----------------|
G#|-----------------| x15
C#|-0~--0~--0~--0---|

F#|--------------------|
C#|--------------------|
G#|--------------------| 
C#|-0~--0~--0~--0--12\-|


[Chorus]
F#|-----------------------------------------------------|
C#|-----------------------------------------------------|
G#|---------------------------------------------3-6-----|
C#|-8~-0--0-0~-0-0-0-3-0-0-0-0-8~-0--0-0~-0-3-0-----0-0-|

F#|-----------------------------------------------------|
C#|-----------------------------------------------------|
G#|-----------------------------------------------------|
C#|-8~-0--0-0~-0-0-0-3-0-0-0-0-8~-0--0-0~-0-3-0-3-3-3-3-|

F#|-----------------------------------------------------|
C#|-----------------------------------------------------|
G#|---------------------------------------------3-6-----|
C#|-8~-0--0-0~-0-0-0-3-0-0-0-0-8~-0--0-0~-0-3-0-----0-0-|

F#|-----------------------------------------------------|
C#|-----------------------------------------------------|
G#|-----------------------------------------------------|
C#|-8~-0--0-0~-0-0-0-3-0-0-0-0-8~-0--0-0~-0-0-0-0-0-0-0-|


[Pre-Verse]
F#|-----------------|
C#|-----------------|
G#|-----------------| x3
C#|-0~--0~--0~------|

F#|-------------------|
C#|-------------------|
G#|-------------------| 
C#|-0~--0~--0~----12\-|


[Verse 2]
F#|-----------------|
C#|-----------------|
G#|-----------------| x8
C#|-0~--0~--0~--0---|

F#|-----------------|
C#|-----------------|
G#|-----------------| x4
C#|-0~--0~--0~--0---|

F#|-----------------|
C#|-----------------|
G#|-----------------| x3
C#|-0~--0~--0~--0---|

F#|--------------------|
C#|--------------------|
G#|--------------------| 
C#|-0~--0~--0~--0--12\-|


[Chorus]
F#|-----------------------------------------------------|
C#|-----------------------------------------------------|
G#|---------------------------------------------3-6-----|
C#|-8~-0--0-0~-0-0-0-3-0-0-0-0-8~-0--0-0~-0-3-0-----0-0-|

F#|-----------------------------------------------------|
C#|-----------------------------------------------------|
G#|-----------------------------------------------------|
C#|-8~-0--0-0~-0-0-0-3-0-0-0-0-8~-0--0-0~-0-3-0-3-3-3-3-|

F#|-----------------------------------------------------|
C#|-----------------------------------------------------|
G#|---------------------------------------------3-6-----|
C#|-8~-0--0-0~-0-0-0-3-0-0-0-0-8~-0--0-0~-0-3-0-----0-0-|

F#|-----------------------------------------------------|
C#|-----------------------------------------------------|
G#|-----------------------------------------------------|
C#|-8~-0--0-0~-0-0-0-3-0-0-0-0-8~-0--0-0~-0-0-0-0-0-0-0-|


[Bridge]
F#|----------------|
C#|-0~-7~-6~-7-----|
G#|----------------| x3
C#|----------------|

F#|------------5---|
C#|-0~-7~-6~-7---7-|
G#|----------------| 
C#|----------------|

F#|----------------|-------7~-------|----------------|----------------|
C#|-0~-7~-6~-7-----|-0~-7~----7-----|-0~-7~-6~-7-----|-0~-7-----------|
G#|----------------|----------------|----------------|----------------|
C#|----------------|----------------|----------------|------0~--------|

F#|----------------------------------------------------------------|
C#|----------------------------------------------------------------|
G#|----------------------------------------------------------------| 
C#|-0~-------------------------------0~------------------------12\-|

F#|----------------------------------------------------------------|
C#|----------------------------------------------------------------|
G#|----------------------------------------------------------------| 
C#|-0~----3~---0~----3~----0~---1~---0~----3~---0~----3~---1-1/12\-|


[Final Chorus]
F#|-----------------------------------------------------|
C#|-----------------------------------------------------|
G#|-----------------------------------------------------| x3
C#|-8~-0--0-0~-0-0-0-0-0-0-0-0-1~-0--0-0~-0-0-0-0-0-0-0-|

F#|---------------------------------------------------------|
C#|---------------------------------------------------------|
G#|---------------------------------------------------------|
C#|-8~-0--0-0~-0-0-0-0-0-0-0-0-1--0-0-0-0-1--0-0-0-0-1--0-0-|


[Outro]
F#|-------------------------------------------------------|
C#|-------------------------------------------------------|
G#|----------------------3-6----------------------3-6-----| x4
C#|-0-0--0-0--0-0--0-3-0-----0-0-1~-0--0-0~-0-3-0-----0-0-|

F#|------------------------------|
C#|------------------------------|
G#|------------------------------| x7
C#|-0-0--0-0--0-0--0-3-0-1-3-0-0-|

F#|-------------|
C#|-------------|
G#|-------------|
C#|-0-0---0-0---|


******************
| ~  vibrato
| /  slide up
| \  slide down
******************
Suggest correction
Give kudos to tab author, rate the tab!
1 2 3 4 5
comments
print report bad tab
guest
You may want to rate the tab now too:
select rating
Wanna post a correction for this tab? Suggest correction