Oops, an error
Loading. Please wait.

Stupify Tab

version 3
version 3

Whole song

5,675 views 1 this week
1 commentread comment
1 2 3 4 5
x 3
add to favorites
launch autoscroll
font size
0
reset
how to read this tab
guitar tuner
Autoscroll
slow
fast
+/-
esc
set tempo
stop
Help us to improve Ultimate-Guitar.com Take our survey!
×
Difficulty
intermediate
This song is mas!!!

X=palm mute
h= hammar on

INTRO/CHORUS:

Eb|------------------------------------------------------|
Bb|------------------------------------------------------|
Gb|------------------------------------------------------|
Db|-8--0-----0---0-----3-------8--0-----0----------------|
Ab|-8--0-0-0-0---0-0-0-3-0-0-0-8--0-0-0-0--0-0-0-3h6-0-0-|
Db|-8--0-0-0-0---0-0-0-3-0-0-0-8--0-0-0-0--0-0-0-----0-0-|
   ------X-X-------X-X---X-X-X------X-X----X-X-X-----X-X-

Eb|------------------------------------------------------|
Bb|------------------------------------------------------|
Gb|------------------------------------------------------|
Db|-8--0-----0---0-----3-------8--0-----0----------------|
Ab|-8--0-0-0-0---0-0-0-3-0-0-0-8--0-0-0-0--0-0-0-0-0-0-0-|
Db|-8--0-0-0-0---0-0-0-3-0-0-0-8--0-0-0-0--0-0-0-0-0-0-0-|
   ------X-X-------X-X---X-X-X------X-X----X-X-X-X-X-X-X-

Eb|------------------------------------------------------|
Bb|------------------------------------------------------|
Gb|------------------------------------------------------|
Db|-8--0-----0---0-----3-------8--0-----0----------------|
Ab|-8--0-0-0-0---0-0-0-3-0-0-0-8--0-0-0-0--0-0-0-3h6-0-0-|
Db|-8--0-0-0-0---0-0-0-3-0-0-0-8--0-0-0-0--0-0-0-----0-0-|
   ------X-X-------X-X---X-X-X------X-X----X-X-X-----X-X-

Eb|----------------------------------------------------|
Bb|----------------------------------------------------|
Gb|----------------------------------------------------|
Db|-8--0-----0---0-----3-------8--0-----0--------------|
Ab|-8--0-0-0-0---0-0-0-3-0-0-0-8--0-0-0-0--0-0-0-0-0-0-|
Db|-8--0-0-0-0---0-0-0-3-0-0-0-8--0-0-0-0--0-0-0-0-0-0-|
   ------X-X-------X-X---X-X-X------X-X----X-X-X-X-X-X-

VERSE:

Eb|------------6-8---------------5-|
Bb|----------6-----------------4---|
Gb|--------------------------2-----|
Db|--------------------------------| X7
Ab|-0--0--0---------0--0--0--------|
Db|-0--0--0---------0--0--0--------|
   -X--X--X---------X--X--X--------

Eb|------------6-8-----------5-5-5-|
Bb|----------6---------------4-4-4-|
Gb|--------------------------2-2-2-|
Db|--------------------------------| X1
Ab|-0--0--0---------0--0--0--------|
Db|-0--0--0---------0--0--0--------|
   -X--X--X---------X--X--X--------

REPEAT CHORUS

PRE-VERSE:

Eb|------------------------------------------|
Bb|------------------------------------------|
Gb|------------------------------------------|
Db|------------------------------------------| X2
Ab|-0--0--0--------------0--0--0-------------|
Db|-0--0--0---8-8-8-8-8--0--0--0---0-0-0-0-0-|
   -X--X--X--------------X--X--X-------------

REPEAT VERSE

PRE-CHORUS:

Eb|------------------------------|
Bb|------------------------------|
Gb|------------------------------|
Db|-0----------------------------| X1
Ab|-0------------------------0-0-|
Db|-0------------------------0-0-|
   --------------------------X-X-

                  
Eb|----------------|    |----------5-5-5-|
Bb|----------------|    |----------4-4-4-|
Gb|----------------|    |----------2-2-2-|
Db|----------------| X3 |----------------| X1
Ab|-0---0---0---0--|    |-0--0--0--------|
Db|-0---0---0---0--|    |-0--0--0--------|
   -X---X---X---X--      -X--X--X--------

REPEAT CHORUS

INTERLUDE:

Eb|----------------|    |---------|
Bb|----------------|    |---------|
Gb|----7----8----8-|    |----7----|
Db|-0-----0----0---| X7 |-0-------| X1
Ab|----------------|    |---------|
Db|----------------|    |-------0-|

Eb|---------------------------------------|
Bb|---------------------------------------|
Gb|---------------------------------------|
Db|-0--3--0--3--0--1--0--3--0--3--0--1--0-| X1
Ab|-0--3--0--3--0--1--0--3--0--3--0--1--0-|
Db|-0--3--0--3--0--1--0--3--0--3--0--1--0-|

Use a Wah Pedal for this riff and set it to a phaser distortion (if u got one).
Eb|-----------------------------------------|
Bb|-----------------------------------------|
Gb|-----------------------------------------|
Db|-0--3--0--3--0--1--0--3--0--3--0--1-1--0-| X1
Ab|-0--3--0--3--0--1--0--3--0--3--0--1-1--0-|
Db|-0--3--0--3--0--1--0--3--0--3--0--1-1--0-|

Eb|------------------------------------------------------|
Bb|------------------------------------------------------|
Gb|------------------------------------------------------|
Db|-8--0-----0-----------------1--0-----0----------------| X3
Ab|-8--0-0-0-0--0-0-0-0-0-0-0--1--0-0-0-0--0-0-0-0-0-0-0-|
Db|-8--0-0-0-0--0-0-0-0-0-0-0--1--0-0-0-0--0-0-0-0-0-0-0-|
   ------X-X----X-X-X-X-X-X-X-------X-X----X-X-X-X-X-X-X-

Eb|---------------------------------------------------------|
Bb|---------------------------------------------------------|
Gb|---------------------------------------------------------|
Db|-8--0-----0-----------------1----------1----------1------| X1
Ab|-8--0-0-0-0--0-0-0-0-0-0-0--1--0-0-0-0-1--0-0-0-0-1--0-0-|
Db|-8--0-0-0-0--0-0-0-0-0-0-0--1--0-0-0-0-1--0-0-0-0-1--0-0-|
   ------X-X----X-X-X-X-X-X-X-----X-X-X-X----X-X-X-X----X-X-

Eb|---------------------------------------------------------|
Bb|---------------------------------------------------------|
Gb|---------------------------------------------------------|
Db|-------------------------------1--0-----0----------------| X4
Ab|-0-0--0-0--0-0--0-0-0-3h6-0-0--1--0-0-0-0--0-0-0-3h6-0-0-|
Db|-0-0--0-0--0-0--0-0-0-----0-0--1--0-0-0-0--0-0-0-----0-0-|
   -X-X--X-X--X-X--X-X-X-----X-X-------X-X----X-X-X-----X-X-

Eb|--------------------------|
Bb|--------------------------|
Gb|--------------------------|
Db|----------------------1h3-| X4
Ab|-0-0--0-0--0-0--0-0-0-1h3-|
Db|-0-0--0-0--0-0--0-0-0-1h3-|
    X-X--X-X--X-X--X-X-X-----

Eb|--------------------------|
Bb|--------------------------|
Gb|--------------------------|
Db|-0-0--0-0--0-0--------1h3-| X4
Ab|-0-0--0-0--0-0--0-0-0-1h3-|
Db|-0-0--0-0--0-0--0-0-0-1h3-|
   ----------------X-X-X-----

OUTRO:

Eb|-----------|
Bb|-----------|
Gb|-----------|
Db|-1-0---0-1-| X1  make the end big, full of force; hit down realy harde.
Ab|-1-0---0-1-|
Db|-1-0---0-1-|

um thats it. yer thats it.
i think its right but if its not im sorry but this is like only the 3rd
song i did so have fun play harde!!!
this has been done by the jordo corp...=+_+=
Suggest correction
Give kudos to tab author, rate the tab!
1 2 3 4 5
comments
print report bad tab
1 comment total.
0 reply
happygoth 10 Nov 06, 2009 06:08 PM

im sorry but this is a copy of version 1.

guest
You may want to rate the tab now too:
select rating
Wanna post a correction for this tab? Suggest correction