Oops, an error
Loading. Please wait.

Ten Thousand Fists Bass Tab

version 1
version 1

Whole song

10,177 views 15 this week
2 commentsread comments
1 2 3 4 5
worth learning
x 6
add to favorites
launch autoscroll
font size
0
reset
guitar tuner
Tab Pro tools
  • play this tab
  • loop segment
  • change instrument
  • show fretboard
  • metronome
Autoscroll
slow
fast
+/-
esc
set tempo
stop
Contributor
Difficulty
Tuning
intermediate
C G C F A D
Intro

|----------------------|-----------------|
|----------------------|-----------------|
|--9868-9868-98689868--|--9868-98689868--|
|----------------------|-----------------|
                              Repeat

Pre-Verse
"SURVIVAL!"
|----------------------|-----------------|
|----------------------|-----------------|
|----------------------|-----------------|
|--4303-4303-43034303--|--4303-43034303--|
                             Repeat
Verse
"ONE MORE GODDAMN DAY.."
|----------------------------------------------------------|
|----------------------------------------------------------|
|----------------------------------------------------------|
|--3-3-3-3-3-3/5-555-58444-4-4303-4303-43034303-4303-4303--|

Chorus
"EVil Can No LONGER COVER THEIR EYES.."
|-----------------------|------|
|-----------------------|------|
|------------------------------|
|--3-3-3/5-5-5/6-6-6/8--|-6-5--|                
                                


|-------------------------------|
|-------------------------------|
|-------------------------------|
|--5-5-5/7-7-7/8-8-8/10-|--7^---|

|------------------------------|
|------------------------------|
|------------------------------|
|--3-3-3/5-5-5/6-6-6/8--|-6-5--|

-----------------
-----------------
-----------------
---3-3-3/1-1-1---

"TEN THOUDAND FISTS IN THE AIR!"

|----------------|
|----------------|
|----------------|
|-10-8-6-5-1-5-3-|

Pre-Verse

Verse

Chorus

Interlude

|------------|------------------------|
|--8-7-8-10--|------------------------|
|------------|--00------00---00-------|
|------------|-------00---------00-0--|

Chorus

Pre-Verse

Outro

|-------------------------|----------------------------|
|------------------------------------------------------|
|--4303-4303-43034303-6-8-|-4303-4303-43034303-6-8-6-3-|
|------------------------------------------------------|
comments
print report bad tab
2 comments total.
0 reply
parkere wrote on September 3 2009, 08:58 pm

i think the E string is Db

0 reply
runecraftmail wrote on May 26 2014, 01:15 pm

There's bass in the bridge, and I don't even see the bridge listed.

I want to post or [tab]
guest
You may want to rate the tab now too:
select rating
Please do not post tabs as comments. Select "correction" instead!