Oops, an error
Loading. Please wait.

Ten Thousand Fists Tab

version 2
4,274 views 6 this week
5 commentsread comments
1 2 3 4 5
accurate
x 5
add to favorites
launch autoscroll
font size
0
reset
how to read this tab
guitar tuner
Autoscroll
slow
fast
+/-
esc
set tempo
stop
Help us to improve Ultimate-Guitar.com Take our survey!
×
Author
Tuning
C# G# C# F# A# D#
TEN THOUSAND FISTS GUITAR TAB

DISTURBED

Tabbed by Vincent508

You'll probably have to play this with the song in order to piece everything together, 
other than that it shouldn't be a problem.

Tuning: Drop C#
eb
Bb
Gb
Db
Ab
Db


Intro
--------

Guitar 1
(citar effect)

|-------7-------10-------5-------9-------10---9---5------------7-------|
|--/5-------5--------5-------5-------5----------------5---/8-------8---|
|----------------------------------------------------------------------|
|----------------------------------------------------------------------|
|----------------------------------------------------------------------|
|----------------------------------------------------------------------|

|-------7-------10-------5-------9-------10---9---5------------7---9---|
|--/5-------5--------5-------5-------5----------------5---/8-----------|
|----------------------------------------------------------------------|
|----------------------------------------------------------------------|
|----------------------------------------------------------------------|
|----------------------------------------------------------------------|

repeat this a bunch of times, slowly fading out

Guitar 2
(light distortion, soft background fill)

|---------------------------------------------------------------------------|
|---------------------------------------------------------------------------|
|---------------------------------------------------------------------------|
|---3-2-0-2.------3-2-0-2-0-2-3-2-0-2-3-2-0-2.------3-2-0-2.------3-2-0-2---|
|---------------------------------------------------------------------------|
|---------------------------------------------------------------------------|

.=fully mute the string after striking


Guitar 1 gradually fades out as guitar 2 gets louder, and eventually goes into the main riff

|------------------------------------------------------------------------|
|------------------------------------------------------------------------|
|------------------------------------------------------------------------|
|---3-2-0-2------3-2-0-2-0-2-3-2-0-2-3-2-0-2------3-2-0-2------3-2-0-2---|
|---3-2-0-2------3-2-0-2-0-2-3-2-0-2-3-2-0-2------3-2-0-2------3-2-0-2---|
|---3-2-0-2------3-2-0-2-0-2-3-2-0-2-3-2-0-2------3-2-0-2------3-2-0-2---|

After playing the main riff once, play this, then continue to repeat the riff a bunch of times.

|-----------|
|-----------|
|-----------|
|---/9V~~~~~
|-----------|
|-----------|

V=vibrato

While playing the riff the last time before the verse starts, attach this to the end.

|-------------|
|-------------|
|-------------|
|---x-x-x-x---|
|---x-x-x-x---|
|---x-x-x-x---|


Verse
------

|--------------------------------------------------------------------------|
|--------------------------------------------------------------------------|
|--------------------------------------------------------------------------|
|-----------------------------------------------------------------x-x-x-x--|
|-----------------------------------------------------------------x-x-x-x--|
|---3-2-0-2------2----2----2-------2s5-----5-5----5----5s3------3-x-x-x-x--|

|----------------------------------------------------------------------------|
|----------------------------------------------------------------------------|
|----------------------------------------------------------------------------|
|---3-2-0-2.------3-2-0-2-0-2-3-2-0-2-3-2-0-2.------3-2-0-2.------3-2-0-2.---|
|---3-2-0-2.------3-2-0-2-0-2-3-2-0-2-3-2-0-2.------3-2-0-2.------3-2-0-2.---|
|---3-2-0-2.------3-2-0-2-0-2-3-2-0-2-3-2-0-2.------3-2-0-2.------3-2-0-2.---|

|--------------------------------------------------------------------------|
|--------------------------------------------------------------------------|
|--------------------------------------------------------------------------|
|-----------------------------------------------------------------x-x-x-x--|
|-----------------------------------------------------------------x-x-x-x--|
|---3-2-0-2------2----2----2-------2s5-----5-5----5----5s3------3-x-x-x-x--|

|--------------------------------------------------------------------------------------|
|--------------------------------------------------------------------------------------|
|--------------------------------------------------------------------------------------|
|---3-2-0-2.------3-2-0-2-0-2-3-2-0-2-3-2-0-2.------3-2-0-2.------3-2-0-2.---x-x----x--|
|---3-2-0-2.------3-2-0-2-0-2-3-2-0-2-3-2-0-2.------3-2-0-2.------3-2-0-2.---x-x----x--|
|---3-2-0-2.------3-2-0-2-0-2-3-2-0-2-3-2-0-2.------3-2-0-2.------3-2-0-2.---x-x----x--|


Chorus
-------

|---------------------------------------------------------------------------------------------|
|---------------------------------------------------------------------------------------------|
|---------------------------------------------------------------------------------------------|
|---2--------9--------2---4--------7--------4---5--------7---------5---7--------7--------12---|
|---2--------7--------2---4--------5--------4---5--------5---------5---7--------5--------10---|
|---2-----------------2---4-----------------4---5------------------5---7----------------------|

|---------------------------------------------------------------------------------------------|
|---------------------------------------------------------------------------------------------|
|----------------------------------------------------------------------------------------7*---|
|---2--------9--------2---4--------7--------4---5--------7---------5---7------7--------7*-----|
|---2--------7--------2---4--------5--------4---5--------5---------5---7------5------7*-------|
|---2-----------------2---4-----------------4---5------------------5---7-----------7*---------|
*=harmonic
|--------------------------------------------------------------------------------------------|
|--------------------------------------------------------------------------------------------|
|--------------------------------------------------------------------------------------------|
|---2--------9--------2---4--------7--------4---5--------7---------5---7--------7-------12---|
|---2--------7--------2---4--------5--------4---5--------5---------5---7--------5-------10---|
|---2-----------------2---4-----------------4---5------------------5---7---------------------|

|----------------------------------------|
|----------------------------------------|
|---2--------9------0-----7----------7---|
|---2--------7------0-----5----0--0--5---|
|---2---------------0----------0--0------|
PM:                           |----|

PM=Palm Mute

|----------------------------------------------|
|--------------------12------------------------|
|---10-------12------12-----5-------7------3---|
|---10-------10------10-----5-------7------3---|
|---10-------10------10-----5-------7------3---|


|------------------------------------------------------------------------|
|------------------------------------------------------------------------|
|------------------------------------------------------------------------|
|---3-2-0-2------3-2-0-2-0-2-3-2-0-2-3-2-0-2------3-2-0-2------3-2-0-2---|
|---3-2-0-2------3-2-0-2-0-2-3-2-0-2-3-2-0-2------3-2-0-2------3-2-0-2---|
|---3-2-0-2------3-2-0-2-0-2-3-2-0-2-3-2-0-2------3-2-0-2------3-2-0-2---|

As with the intro, after playing the main riff a bunch of times, play this before 
the second verse.

|-------------|
|-------------|
|-------------|
|---x-x-x-x---|
|---x-x-x-x---|
|---x-x-x-x---|


After this repeat the verse and the chorus once more, except at the end of the second 
play this instead of the main riff.

|--------------------------------------|
|--------------------------------------|
|--------------------------------------|
|---2----------------------------------|
|---2----------------------------------|
|---2----------------------------------|

** let note ring and fade out.


Bridge intro (after the second chorus)
-----------------------------

(citar effect)

|-------------------------------------------------|
|-------------------------------------------------|
|-------------------------------------------------|
|---7---6----7-------7--6-----7s9-----------------|
|---------------7---------------------------------|
|--------------------------------------5b6----5---|
                                        *bend slowly
|----------------------------------------------------------|
|----------------------------------------------------------|
|----------------------------------------------------------|
|----------------------5b6r5---------------------5-----7---|
|-----------------------------------------0h5h7------------|
|---8b9--------8----------------3b4r3----------------------|
     *bend very slowly
|-------------------------------------------------|
|-------------------------------------------------|
|-------------------------------------------------|
|---7---6----7-------7--6-----7s9-----------------|
|---------------7---------------------------------|
|--------------------------------------5b6----5---|
                                        *bend slowly
|--------------------------------------------------------|
|--------------------------------------------------------|
|--------------------------------------------------------|
|---5b6r5------------------------------------------------|
|--------------------------7b8r7---------------5h7p5-----|
|--------------------------------------------------------|
    *bend very slowly       *bend very slowly

Bridge
--------

Guitar 1(citar effect, background)

|-------7-------10-------5-------9-------10---9---5------------7-------|
|--/5-------5--------5-------5-------5----------------5---/8-------8---|
|----------------------------------------------------------------------|
|----------------------------------------------------------------------|
|----------------------------------------------------------------------|
|----------------------------------------------------------------------|

|-------7-------10-------5-------9-------10---9---5------------7---9---|
|--/5-------5--------5-------5-------5----------------5---/8-----------|
|----------------------------------------------------------------------|
|----------------------------------------------------------------------|
|----------------------------------------------------------------------|
|----------------------------------------------------------------------|

Play this the whole bridge.

Guitar 2
(metal distortion, lead)
|---------------------------------------------------------------------------|
|---------------------------------------------------------------------------|
|---------------------------------------------------------------------------|
|---0h2.--------0h2.----0h2.--------------2.-----2.-----0---------------3---|
|---0h2.--------0h2.----0h2.--------------2.-----2.-----0---------------3---|
|---0h2.--------0h2.----0h2.--------------2.-----2.-----0---------------3---|


Play this the whole bridge.


After the bridge, play the chorus one more time, and then on to the outro.

Outro
------

|----------------------------------------------------------------------|
|----------------------------------------------------------------------|
|----------------------------------------------------------------------|
|---3-2-0-2------3-2-0-2-0-2-3-2-0-2-3-2-0-2------3-2-5------7-----3---|
|---3-2-0-2------3-2-0-2-0-2-3-2-0-2-3-2-0-2------3-2-5------7-----3---|
|---3-2-0-2------3-2-0-2-0-2-3-2-0-2-3-2-0-2------3-2-5------7-----3---|

Play this a bunch of times, then the last time Draiman says "ten thousand fists in the 
tack this on the end of the riff.

|----------------------|
|----------------------|
|----------------------|
|---2.-----------------|
|---2.-----------------|
|---2.-----------------|


This is what, my 3rd tab? heh, it sounds accurate to me, so I hope it helps you out!
Suggest correction
comments
print report bad tab
5 comments total. Showing first comments.
0 reply
badface69 10 wrote on February 14 2008, 08:34 pm

DUDE this tab totally kicks ass im convinced its 100% correct nice tab

0 reply
Metalmannen 124 wrote on August 11 2008, 09:08 pm

nice, the only problem with it was that you didnt tab the verse :P
it's

E|------------------------------------------------------------------|
B|------------------------------------------------------------------|
G|------------------------------------------------------------------|
D|-----------------------------------------------------------3------|
A|-----------------------------------------------------------3------|
D|-2~------2---2-------2-----2-------5-------5---3-----3-----3------|

E|------------------------------------------------------------------|
B|------------------------------------------------------------------|
G|------------------------------------------------------------------|
D|------------------------------------------------------------------|
A|-3-2-0-2-----3-2-0-2-0-2-3-2-0-2-3-2-0-2-----3-2-0-2-----3-2-0-2--|
D|-3-2-0-2-----3-2-0-2-0-2-3-2-0-2-3-2-0-2-----3-2-0-2-----3-2-0-2--|


but otherwise great tab!

0 reply
Metalmannen 124 wrote on August 11 2008, 09:09 pm

oh never mind man i just saw that you have tabbed that part xD
awesome tab!

guest
You may want to rate the tab now too:
select rating
Please do not post tabs as comments. Select "correction" instead!