Oops, an error
Loading. Please wait.

Ten Thousand Fists Tab

version 5
2,601 views 6 this week
4 commentsread comments
1 2 3 4 5
accurate
x 3
add to favorites
launch autoscroll
font size
0
reset
how to read this tab
guitar tuner
Tab Pro tools
  • play this tab
  • loop segment
  • change instrument
  • show fretboard
  • metronome
×
Best way to learn
"Ten Thousand Fists"
Autoscroll
slow
fast
+/-
esc
set tempo
stop
Contributor
Band: Disturbed
Song: 10,000 Fists
Album:10,000 Fists
Tabbed by Terry Freemer
Email: flay_victus@yahoo.com

Tuning: Db,Ab,Db,Gb,Bb,Eb (drop "D")

Intro
Eb|-------------------------------|
Bb|-------------------------------|
Gb|-------------------------------|
Db|-------------------------------|repeat 6X
Ab|-8757-87575787578757-8757-8757-|
Db|-------------------------------|

Riff 1A
"Survivor"                         Riff 1B
Eb|-------------------------------|--------------------------------|
Bb|-------------------------------|--------------------------------|
Gb|-------------------------------|--------------------------------|
Db|-------------------------------|--------------------------------|
Ab|-------------------------------|--------------------------------|
Db|-3202-32020232023202-3202-3202-|-3202-32020232023202-3202-/15~\-|

Repeat Riff 1A

Riff 1C
Eb|-------------------------------|
Bb|-------------------------------|
Gb|-------------------------------|
Db|-------------------------------|
Ab|-------------------------------|
Db|-3202-32020232023202-3202-5555-|
                             HHHH

Riff 2A
"One more"
Eb|---------------------------------------------------------------|
Bb|---------------------------------------------------------------|
Gb|---------------------------------------------------------------|
Db|---------------------------x-x-x-------------------------------|
Ab|---------------------------x-x-x-3202-32020232023202-3202-3202-|
Db|-3202-2-2-22-/65-5-5-5-3-3-x-x-x-3202-32020232023202-3202-3202-|

Riff 2B
"Just another"
Eb|---------------------------------------------------------------|
Bb|---------------------------------------------------------------|
Gb|---------------------------------------------------------------|
Db|---------------------------x-x-x-------------------------------|
Ab|---------------------------x-x-x-3202-32020232023202-3202-xx-x-|
Db|-3202-2-2-22-/65-5-5-5-3-3-x-x-x-3202-32020232023202-3202-xx-x-|

Riff 3A
"People can"                Riff 3B
Eb|------------------------|---------------------------|
Bb|------------------------|---------------------------|
Gb|--4---------------------|--4------------------------|
Db|--2----7-----7-----7-12-|--2----7-----7-----7-----5-|
Ab|-2-2-4-5-4-5-5-5-7-5-10-|-2-2-4-5-4-5-5-5-7-5---5---|
Db|-2-2-4---4-5-5-5-7------|-2-2-4---4-5-5-5-7---5-----|
                                                 H H H
Reapeat Riff 3A

Riff 3C
Eb|-----------------------|
Bb|-----------------------|
Gb|--4--------------------|
Db|--2--7---7-5-4-5-------|
Ab|-2-0-5---5-3-3-3-5-7-5-|
Db|-2-0---0---------5-7-5-|
         PM
Repeat Riff 1A
Repeat Riff 1C
Repeat Riff 2A

Eb|--------------------------------------------------------------|
Bb|--------------------------------------------------------------|
Gb|--------------------------------------------------------------|
Db|---------------------------x-x-x------------------------------|
Ab|---------------------------x-x-x-3202-32020232023202-32-0-0-5-|
Db|-3202-2-2-22-/65-5-5-5-3-3-x-x-x-3202-32020232023202-32-0-0-5-|
                                                           PMPMPM
Repeat Riff 3A
Repeat Riff 3B
Repeat Riff 3A
Repeat Riff 3C

Eb|---|
Bb|---|
Gb|---|
Db|-2-|
Ab|-2-|Let ring for one measure
Db|-2-|

Bridge 1A
Eb|---------------------------------------------------------------------|
Bb|---------------------------------------------------------------------|
Gb|---------------------------------------------------------------------|
Db|---------------------------------------------------------------------|
Ab|-7^-8---8-7-8/10~-----7^----3203-3-7^-8---8-7-8/10---7^-2^-5^-3203-3-|
Db|------9~---------5^-8^---3^-3203-3-----9~----------5^---------3203-3-|

Bridge 1B
Eb|-------------------------------|
Bb|-------------------------------|
Gb|-------------------------------|
Db|-------------------------------|
Ab|-222-22-22--2-2-0-0-3----------|Repeat 4X
Db|-222-22-22--2-2-0-0-3----------|

Repeat Riff 3A
Repeat Riff 3B
Repeat Riff 3A
Repeat Riff 3C

Riff 2D
Eb|------------------------------|
Bb|------------------------------|
Gb|------------------------------|
Db|------------------------------|
Ab|------------------------5-7-5-|
Db|-3202-32020232023202-32-5-7-5-|Repeat 3X

Eb|--------------------------------|
Bb|--------------------------------|
Gb|--------------------------------|
Db|--------------------------------|
Ab|------------------------5-7-5-2-|
Db|-3202-32020232023202-32-5-7-5-2-|


End of song

PM= Palm Mute
^= half step bend and release

Here it is guys. Learn it this way and send me your comments
comments
We did not receive enough feedback on this tab! Please rate:
print report bad tab
1 2 3 4 5
4 comments total. Showing first comments.
0 reply
Andrew Zara wrote on November 9 2005, 10:21 am

It sucks

0 reply
Andrew Zara wrote on November 9 2005, 10:21 am

It s about 5% correct.

0 reply
dark_falco3000 wrote on February 19 2007, 05:50 am

*agrees with Zara*

I want to post or [tab]
guest
You may want to rate the tab now too:
select rating
Please do not post tabs as comments. Select "correction" instead!