Oops, an error
Loading. Please wait.

Ten Thousand Fists Tab

version 6
8,666 views 30 this week
no commentswrite comment
1 2 3 4 5
x 5
add to favorites
launch autoscroll
font size
0
reset
how to read this tab
guitar tuner
Autoscroll
slow
fast
+/-
esc
set tempo
stop
Help us to improve Ultimate-Guitar.com Take our survey!
×
Author
Tuning
D A D G B E
-------------------------------------------------------------------------------
			     Ten Thousand Fists - Disturbed
-------------------------------------------------------------------------------
Tabbed by: 10kf.iskickass
Email: mds25@email.vccs.edu
Tuning: Drop Db

	Well, here it is. I tabbed this completely by ear, did not use other
people's work, and I think it sounds damned near perfect. If you want, lemme
know what you think, you can email me whenever.

Intro overlay (guitar, citar effect):
Just repeat until heavy intro
Eb|12----7----10----5----8----10----8----6/12--12------7----10----5----8----10----7----5/-|
Bb|10----5----8-----3----6----8-----6----4/10--10------5----8-----3----6----8-----5----3/-| 
Gb|---------------------------------------------------------------------------------------| 
Db|---------------------------------------------------------------------------------------|
Ab|---------------------------------------------------------------------------------------|
Db|---------------------------------------------------------------------------------------|

Light intro (quiet guitar, distortion):
When you finish this go straight into a repeat,
like there is no rest between
the end and the start (this is true of all of these)
(play 3x)
Eb|----------------------------------------------------------------|
Bb|----------------------------------------------------------------|
Gb|----------------------------------------------------------------| 
Db|3202--32020232023202--3202--32023202--32020232023202--3202--3202| 
Ab|----------------------------------------------------------------| 
Db|----------------------------------------------------------------| 

Heavy intro (distortion guitar):
fist time the 9, second the harmonics
(play 2x)                                                     1st     2nd
Eb|-----------------------------------------------------------|-------|---------| 
Bb|-----------------------------------------------------------|-------|---------| 
Gb|-----------------------------------------------------------|-------|---------| 
Db|3202--32020232023202--3202--32023202--32020232023202--3202-|-/9~~~-|---------| 
Ab|3202--32020232023202--3202--32023202--32020232023202--3202-|-------|---------|
Db|3202--32020232023202--3202--32023202--32020232023202--3202-|-------|5*5*5*5*-|

Verse (distortion guitar):
after the second time play the mutes
(play 2x)
Eb|---------------------------------------------------------------------|------| 
Bb|---------------------------------------------------------------------|------| 
Gb|---------------------------------------------------------------------|------| 
Db|3202~~~---------------------------333202--32020232023202--3202--3202-|-XX-X-| 
Ab|3202~~~---------------------------333202--32020232023202--3202--3202-|-XX-X-|
Db|3202-2--2--22/5--5--5-55\3--3--3--333202--32020232023202--3202--3202-|-XX-X-|
                                     ..
Chorus (distortion guitar):

Eb|---------------------------------------------------------------------|
Bb|---4-------4------------------------4-------2------------------------|
Gb|---2-------0------------------7-----2-------0--------------------7*--|
Db|2~~2--2-4--0--4-5~~7--5-7--7--5--2~~2--2-4--0--4-5~~7--5-7--7---7*---|
Ab|2~~~--2-4-----4-5~~5--5-7--5-----2~~~--2-4-----4-5~~5--5-7--5--7*----|
Db|2~~~--2-4-----4-5~~~--5-7--------2~~~--2-4-----4-5~~~--5-7-----------|

Chorus cntd.

Eb|---------------------------------------------------------|
Bb|---4-------2---------------------------------------------|
Gb|---2-------0------------------7--------------------------|
Db|2~~2--2-4--0--4-5~~7--5-7--7--5--9-9-9-7XX7-5~7-7-4-0-5--|
Ab|2~~~--2-4-----4-5~~5--5-7--5-----9-7-9-7XX7-5~5-7-4-0-5--|
Db|2~~~--2-4-----4-5~~~--5-7--------9---9-7XX7-5~~-7-4-0-5--|

Play heavy intro riff once with the 4 mutes at the end.

Verse 2 (distortion guitar):
(second ending is palm muted, it wouldn't let me put that)
(play 2x)                                                            1st 2nd
Eb|------------------------------------------------------------------|---|--------| 
Bb|------------------------------------------------------------------|---|--------| 
Gb|------------------------------------------------------------------|---|--------| 
Db|3202~~~---------------------------333202--32020232023202--3202--32|02-|-0--0--3|  
Ab|3202~~~---------------------------333202--32020232023202--3202--32|02-|-0--0--3| 
Db|3202-2--2--22/5--5--5-55\3--3--3--333202--32020232023202--3202--32|02-|-0--0--3| 
                                     ..                                
Chorus 2 (distortion guitar), vitually no difference, only at the end:

Eb|---------------------------------------------------------------------|
Bb|---4-------4------------------------4-------2------------------------|
Gb|---2-------0------------------7-----2-------0--------------------7*--|
Db|2~~2--2-4--0--4-5~~7--5-7--7--5--2~~2--2-4--0--4-5~~7--5-7--7---7*---|
Ab|2~~~--2-4-----4-5~~5--5-7--5-----2~~~--2-4-----4-5~~5--5-7--5--7*----|
Db|2~~~--2-4-----4-5~~~--5-7--------2~~~--2-4-----4-5~~~--5-7-----------|

Chorus 2 cntd.

Eb|-------------------------------------------------------------|
Bb|---4-------2-------------------------------------------------|
Gb|---2-------0------------------7------------------------------|
Db|2~~2--2-4--0--4-5~~7--5-7--7--5--9-9-9-7XX7-5~7-7-4-0-5-2~~~-|
Ab|2~~~--2-4-----4-5~~5--5-7--5-----9-7-9-7XX7-5~5-7-4-0-5-2~~~-|
Db|2~~~--2-4-----4-5~~~--5-7--------9---9-7XX7-5~~-7-4-0-5-2~~~-|

Bridge (citar effect):

Eb|7--3--7--0--7--3--7/10---------------------------------| 2x
Bb|5--3--5--0--5--3--5/8---------5b--5--4b--4-------------|
Gb|------------------------------4b--4--4b--4-------------|
Db|--------------------------------------------320--2--3--|
Ab|-----------------------2b--2----------------320--2--3--|
Db|--------------------------------------------320--2--3--|

Bridge (distortion guitar, part 1):

Eb|---------------------------------------| 2x
Bb|---------------------------------------|
Gb|---------------------------------------|
Db|0--0--------0--0--0---------0h2--3202--|
Ab|0--0--------0--0--0---------0h2--3202--|
Db|0--0--------0--0--0---------0h2--3202--|
		  .
After the two above finish, play the
intro overlay twice while playing:

Bridge (distortion guitar, part 2):
                          3x    4th
Eb|-----------------------|-----|-----| Bb|-----------------------|-----|-----|
Gb|-----------------------|-----|-----|
Db|0h2--0h2-0h2--2--2--0--|2-3--|-2~~~|
Ab|0h2--0h2-0h2--2--2--0--|2-3--|-2~~~|
Db|0h2--0h2-0h2--2--2--0--|2-3--|-2~~~|

Chorus 1, one time

Outro (distortion guitar)
                                    4th
Eb|---------------------------------|---| 4x
Bb|---------------------------------|---|
Gb|---------------------------------|---| after the fourth time, play the 2's
Db|3202--32020232023202--325--7--3--|-2-| as well
Ab|3202--32020232023202--325--7--3--|-2-|
Db|3202--32020232023202--325--7--3--|-2-|


| /  slide up
| \  slide down
| h  hammer-on
| p  pull-off
| ~  vibrato
| *  harmonic
| x  Mute note
| .  Palm mute
===========================================================================
Suggest correction
comments
print report bad tab
guest
You may want to rate the tab now too:
select rating
Wanna post a correction for this tab? Suggest correction