Oops, an error
Loading. Please wait.

The Game Tab

version 3
version 3
1,929 views 1 this week
1 commentread comment
1 2 3 4 5
please rate
add to favorites
launch autoscroll
font size
0
reset
how to read this tab
guitar tuner
Autoscroll
slow
fast
+/-
esc
set tempo
stop
Help us to improve Ultimate-Guitar.com Take our survey!
×
Contributor
Difficulty
Andrew Zara 3,570
intermediate
Gtr I (D# G# C# F# A# D#) - 'Guitar 1'
Gtr II (D# G# C# F# A# D#) - 'Guitar 2'


 Intro / First Verse
  Q=130
 4/4
  Gtr I
  Wx8
|--------|
|--------|
|--------|
|--------|
|--------|
|--------|


 First Verse
  N.C.
 4/4
  Gtr I
   W           W           W           H     H
|-12--------|-13--------|-12--------|-------15----|
|-----------|-----------|-----------|-15----------|
|-----------|-----------|-----------|-------------|
|-----------|-----------|-----------|-------------|
|-----------|-----------|-----------|-------------|
|-----------|-----------|-----------|-------------|


   Second Verse
     W           W           W           H     H
||--12--------|-13--------|-12--------|-------15-----||
||o-----------|-----------|-----------|-15----------o||
||------------|-----------|-----------|--------------||
||------------|-----------|-----------|--------------||
||o-----------|-----------|-----------|-------------o||
||------------|-----------|-----------|--------------||


   Pre-Chorus
    E5        Bsus4     F5   E5                      F5
      PM----|   PM----|      PM|     PM----|     PM|
    E S S S S E S S S S Q    S S S S S S S S S S S S Q
||-------------------------|----------------------------|
||o------------------------|----------------------------|
||--4---------4---------5--|-----7s9--------------------|
||--2---------2---------3--|-----------------5s7--------|
||o-2---------2---------3--|-----5s7-----------------3--|
||--0-0-0-0-0---0-0-0-0----|-0-0-----0-0-0-0-3s5-0-0-1--|


  E5        Bsus4     F5   E5                      Bb5
    PM----|   PM----|      PM|     PM----|     PM|
  E S S S S E S S S S Q    S S S S S S S S S S S S Q
|------------------------|------------------------------||
|------------------------|-----------------------------o||
|-4---------4---------5--|-----7s9----------------------||
|-2---------2---------3--|-----------------5s7----------||
|-2---------2---------3--|-----5s7-----------------8---o||
|-0-0-0-0-0---0-0-0-0----|-0-0-----0-0-0-0-3s5-0-0-6----||


 Verse 3
  E5
  >
  W          +W           +W           +W
|----------|------------|------------|--------|
|----------|------------|------------|--------|
|-4--------|-(4)--------|-(4)--------|-(4)----|
|-2--------|-(2)--------|-(2)--------|-(2)----|
|-2--------|-(2)--------|-(2)--------|-(2)----|
|-0--------|-(0)--------|-(0)--------|-(0)----|


                                                 ~~
  +W           +W           +W           +H      H
|------------|------------|------------|--------------|
|------------|------------|------------|--------------|
|-(4)--------|-(4)--------|-(4)--------|-(4)----------|
|-(2)--------|-(2)--------|-(2)--------|-(2)----/9----|
|-(2)--------|-(2)--------|-(2)--------|-(2)----------|
|-(0)--------|-(0)--------|-(0)--------|-(0)----------|


   Pre-Chorus
    E5        Bsus4     F5   E5                      F5
      PM----|   PM----|      PM|     PM----|     PM|
    E S S S S E S S S S Q    S S S S S S S S S S S S Q
||-------------------------|----------------------------|
||o------------------------|----------------------------|
||--4---------4---------5--|-----7s9--------------------|
||--2---------2---------3--|-----------------5s7--------|
||o-2---------2---------3--|-----5s7-----------------3--|
||--0-0-0-0-0---0-0-0-0----|-0-0-----0-0-0-0-3s5-0-0-1--|


  E5        Bsus4     F5   E5                      Bb5
    PM----|   PM----|      PM|     PM----|     PM|
  E S S S S E S S S S Q    S S S S S S S S S S S S Q
|------------------------|------------------------------||
|------------------------|-----------------------------o||
|-4---------4---------5--|-----7s9----------------------||
|-2---------2---------3--|-----------------5s7----------||
|-2---------2---------3--|-----5s7-----------------8---o||
|-0-0-0-0-0---0-0-0-0----|-0-0-----0-0-0-0-3s5-0-0-6----||


   Chorus
    E5
    S S S S E S S S S E S S S S   S S S S E S S S S E S S S S  4x
||------------------------------|------------------------------||
||o-----------------------------|-----------------------------o||
||------------------------------|------------------------------||
||------------------------------|------------------------------||
||o-----------------------------|-----------------------------o||
||--0-0-0-----0-----0---0-0-0---|-0-0-0-----0-----0---0-0-0----||


  E5        Bsus4     F5            Fmaj11
    PM----|   PM----|
  E S S S S E S S S S Q    +H.       Q
|------------------------|----------!0--|
|------------------------|----------!0--|
|-4---------4------------|----------!2--|
|-2---------2---------3--|-(3)------!3--|
|-2---------2---------3--|-(3)------!3--|
|-0-0-0-0-0---0-0-0-0-1--|-(1)------!1--|


 Verse 4
  E5
  Gtr I
   >
   W          +W           +W           +W
|-----------|------------|------------|--------------|
|-----------|------------|------------|--------------|
|--4--------|-(4)--------|-(4)--------|-(4)----------|
|--2--------|-(2)--------|-(2)--------|-(2)----------|
|--2--------|-(2)--------|-(2)--------|-(2)----------|
|--0--------|-(0)--------|-(0)--------|-(0)----------|
|
| Gtr II
|  W           W            W            H      H
|-12--------|-13---------|-12---------|--------15----|
|-----------|------------|------------|-15-----------|
|-----------|------------|------------|--------------|
|-----------|------------|------------|--------------|
|-----------|------------|------------|--------------|
|-----------|------------|------------|--------------|


  Gtr I
  +W           +W           +W           +W
|------------|------------|------------|--------------|
|------------|------------|------------|--------------|
|-(4)--------|-(4)--------|-(4)--------|-(4)----------|
|-(2)--------|-(2)--------|-(2)--------|-(2)----------|
|-(2)--------|-(2)--------|-(2)--------|-(2)----------|
|-(0)--------|-(0)--------|-(0)--------|-(0)----------|
|
| Gtr II
|  W            W            W            H      H
|-12---------|-13---------|-12---------|--------15----|
|------------|------------|------------|-15-----------|
|------------|------------|------------|--------------|
|------------|------------|------------|--------------|
|------------|------------|------------|--------------|
|------------|------------|------------|--------------|


   Pre-Chorus
    E5        Bsus4     F5   E5                      F5
      PM----|   PM----|      PM|     PM----|     PM|
    E S S S S E S S S S Q    S S S S S S S S S S S S Q
||-------------------------|----------------------------|
||o------------------------|----------------------------|
||--4---------4---------5--|-----7s9--------------------|
||--2---------2---------3--|-----------------5s7--------|
||o-2---------2---------3--|-----5s7-----------------3--|
||--0-0-0-0-0---0-0-0-0----|-0-0-----0-0-0-0-3s5-0-0-1--|


  E5        Bsus4     F5   E5                      Bb5
    PM----|   PM----|      PM|     PM----|     PM|
  E S S S S E S S S S Q    S S S S S S S S S S S S Q
|------------------------|------------------------------||
|------------------------|-----------------------------o||
|-4---------4---------5--|-----7s9----------------------||
|-2---------2---------3--|-----------------5s7----------||
|-2---------2---------3--|-----5s7-----------------8---o||
|-0-0-0-0-0---0-0-0-0----|-0-0-----0-0-0-0-3s5-0-0-6----||


   Chorus
    E5
    S S S S E S S S S E S S S S   S S S S E S S S S E S S S S  4x
||------------------------------|------------------------------||
||o-----------------------------|-----------------------------o||
||------------------------------|------------------------------||
||------------------------------|------------------------------||
||o-----------------------------|-----------------------------o||
||--0-0-0-----0-----0---0-0-0---|-0-0-0-----0-----0---0-0-0----||


 Bridge
  N.C.
  S E. Q  H      W          W          W
|--------------|----------|----------|------|
|--------------|----------|----------|------|
|--------------|----------|----------|------|
|--------------|----------|----------|------|
|--------------|----------|----------|------|
|-0------------|----------|----------|------|


    Q   Q     E E E E   Q   Q       E  E Q
||-----12b14----------|----12b14r=(12)S0-------|
||o----15b17----------|----15b17r=(15)S0-6b8---|
||--------------------|------------------8b10--|
||--------------------|------------------------|
||o-------------------|------------------------|
||--0-----------1---1-|-0----------------------|


  Q   Q     E E E E   Q   Q       E  E Q    4x
|----12b14----------|----12b14r=(12)S0------||
|----15b17----------|----15b17r=(15)S0-8---o||
|-------------------|------------------8----||
|-------------------|-----------------------||
|-------------------|----------------------o||
|-0-----------1---1-|-0---------------------||


    E5        F5    F5    E5               E5
    S E. Q  E S S S S E   S E. Q  H     4x S E. Q  H
||----------------------|---------------||--------------|
||o---------------------|--------------o||--------------|
||----------------------|---------------||--------------|
||--2---------3-----3---|-2-------------||-2------------|
||o-2---------3-----3---|-2------------o||-2------------|
||--0---------1-----1---|-0-------------||-0------------|


   Chorus
    E5
    Gtr I
    S S S S E S S S S E  S S S S    S  S S S E S S S S E S S S S  3x
||-------------------------------|--------------------------------||
||o------------------------------|-------------------------------o||
||-------------------------------|--------------------------------||
||-------------------------------|--------------------------------||
||o------------------------------|-------------------------------o||
||--0-0-0-----0-----0----0-0-0---|--0--0-0-----0-----0---0-0-0----||
|
|   Gtr II
|                                   ~~~
|   H             Q      Q          Q        Q     H              3x
||-------------------------------|-24\----------------------------||
||o------------------------------|-------------------------------o||
||----------------------21-------|--------------------------------||
||-------------------------------|--------------------------------||
||o------------------------------|-------------------------------o||
||-------------------------------|--------------------------------||


  Gtr I
  S S S S E S S S S E  S S S S    S  S S S E S S S S E  Q
|------------------------------|-----------------------------|
|------------------------------|-----------------------------|
|------------------------------|-----------------------------|
|------------------------------|-----------------------------|
|------------------------------|-----------------------------|
|-0-0-0-----0-----0----0-0-0---|--0--0-0-----0-----0---17\---|
|
| Gtr II
|                                 ~~~
| H             Q      Q          Q        Q     H
|------------------------------|-24\-------------------------|
|------------------------------|-----------------------------|
|---------------------21-------|-----------------------------|
|------------------------------|-----------------------------|
|------------------------------|-----------------------------|
|------------------------------|-----------------------------|


   Outro
    E5
              PM------------------------------|
    S S E +E  E +E  Q  E   S S E +E  E +E  Q  E
||-----------------------|-----------------------||
||o----------------------|----------------------o||
||-----------------------|-----------------------||
||-----------------------|-----------------------||
||o-2-2-2-(2)------------|----------------------o||
||--0-0-0-(0)-0-(0)-0--0-|-0-0-0-(0)-0-(0)-0--0--||


    S S E +E  E +E  Q  E  3x S S E +E  E +E  E S S E
||------------------------||-------------------------*|
||o----------------------o||-------------------------*|
||------------------------||-------------------------*|
||------------------------||-------------------------*|
||o-2-2-2-(2)-2-(2)-2--2-o||-2-2-2-(2)-2-(2)-2-2-2-2-*|
||--0-0-0-(0)-0-(0)-0--0--||-0-0-0-(0)-0-(0)-0-0-0-0-*|




--------------------------------------------------------------------------------


Duration Legend
---------------
W - whole; H - half; Q - quarter; E - 8th; S - 16th; T - 32nd; X - 64th; a - acciaccatura
+ - note tied to previous; . - note dotted; .. - note double dotted
Uncapitalized letters represent notes that are staccato (1/2 duration)
Irregular groupings are notated above the duration line
Duration letters will always appear directly above the note/fret number it represents the
duration for.  Duration letters with no fret number below them represent rests.  Multi-
bar rests are notated in the form Wxn, where n is the number of bars to rest for.  Low
melody durations appear below the staff

Tablature Legend
----------------
 h   - hammer-on
 p   - pull-off
 b   - bend
 pb  - pre-bend
 r   - bend release (if no number after the r, then release immediately)
 /\  - slide into or out of (from/to "nowhere")
 s   - legato slide
 S   - shift slide
 - natural harmonic
[n]  - artificial harmonic
n(n) - tapped harmonic
 ~   - vibrato
 tr  - trill
 T   - tap
 TP  - trem. picking
 PM  - palm muting
\n/  - tremolo bar dip; n = amount to dip
 \n  - tremolo bar down
 n/  - tremolo bar up
/n\  - tremolo bar inverted dip
 =   - hold bend; also acts as connecting device for hammers/pulls
 <> - volume swell (louder/softer)
 x   - on rhythm slash represents muted slash
 o   - on rhythm slash represents single note slash

Misc Legend
-----------
 |  - bar
||  - double bar
||o - repeat start
o|| - repeat end
*|  - double bar (ending)
 :  - bar (freetime)
 $  - Segno
 &  - Coda
Tempo markers -  = BPM(8/16=s8/s16), where s8 = swing 8ths, s16 = swing 16ths


Suggest correction What's this?
You can suggest a correction to this tab. Community and Mods will review your correction and vote to approve or reject it.
comments
We did not receive enough feedback on this tab! Please rate:
print report bad tab
1 2 3 4 5
1 comment total.
0 reply
10kf.iskickass 614 wrote on March 16 2007, 02:54 pm

i watched him play it live, and i think he does string mutes as opposed to palm mutes during the intro/pre-chorus

I want to post or [tab]
guest
You may want to rate the tab now too:
select rating
Please do not post tabs as comments. Select "correction" instead!