Oops, an error
Loading. Please wait.

The Infection Tab

version 2
version 2

Whole song

Interactive

7,573 views 12 this week
no commentswrite comment
1 2 3 4 5
accurate
x 5
add to favorites
launch autoscroll
font size
0
reset
how to read this tab
guitar tuner
Tab Pro tools
  • play this tab
  • loop segment
  • change instrument
  • show fretboard
  • metronome
×
Best way to learn
"The Infection"
Autoscroll
slow
fast
+/-
esc
set tempo
stop
Contributor
Tuning
C# G# C# F# A# D#
The infection tab by Disturbed

Tabbed by thiscomposer
(Mail me at thiscomposer@mail.ru)

Tuning : C#G#C#F#A#D#

Tablature legend
=================
*-palm mute
/\-slide
x-dead note
~-let note ring


Intro

1st part X2
Gtr 1(wah)

|-------------------------------------------------------------------|
|-------------------------------------------------------------------|
|-------------------------------------------------------------------|
|-------------------------------------------------------------------|
|--------------------------------5----------------------------6-----|
|-0-3-0-3-5-3-0-6--5-0-5-6-0-6-7---0-3-0-3-5-3-0-6--0-5-0-5-6---6-5-|


2nd part X2
Gtr 1(wah)

|-------------------------------------------------------------------|
|-------------------------------------------------------------------|
|-------------------------------------------------------------------|
|-------------------------------------------------------------------|
|--------------------------------5----------------------------6-----|
|-0-3-0-3-5-3-0-6--5-0-5-6-0-6-7---0-3-0-3-5-3-0-6--0-5-0-5-6---6-5-|

Gtr 2(palm muted)

|-------------------------------------------------------------------|
|-------------------------------------------------------------------|
|-------------------------------------------------------------------|
|--------------------------------7----------------------------8-----|
|-0-3-0-3-5-3-0-6--5-0-5-6-0-6-7-5-0-3-0-3-5-3-0-6--0-5-0-5-6-6-6-5-|
|-0-3-0-3-5-3-0-6--5-0-5-6-0-6-7---0-3-0-3-5-3-0-6--0-5-0-5-6---6-5-|


3rd part X2
Gtr 1(wah)
|------------------------------------------------------------------|
|-13-13--13--13-13--13--13-13--13--12-12--12--12-12--12--12-12--12-|
|-x--x---x---x--x---x---x--x---x---x--x---x---x--x---x---x--x---x--|
|-11-11--11--11-11--11--11-11--11--10-10--10--10-10--10--10-10--10-|
|------------------------------------------------------------------|
|------------------------------------------------------------------|

Gtr 2

|-------------------------------------------------------------------|
|-------------------------------------------------------------------|
|-------------------------------------------------------------------|
|-------------------------------------------------------------------|
|--------------------------------5----------------------------6-----|
|-0-3-0-3-5-3-0-6--5-0-5-6-0-6-7---0-3-0-3-5-3-0-6--0-5-0-5-6---6-5-|


Verse X2

Gtr 1(wah)X4

|---------------------------------------|
|---------------------------------------|
|-10-10-10-10--10-10-10--10--9-9--9-9-9-|
|-x--x--x--x---x--x--x---x---x-x--x-x-x-|
|-8--8--8--8---8--8--8---8---7-7--7-7-7-|
|---------------------------------------|

Gtr 2
X2
|-------------------------------|
|-------------------------------|
|-3-3-3-3--3-3-3--3--3-3--3-3-3-|
|-3-3-3-3--3-3-3--3--3-3--3-3-3-|
|-1-1-1-1--1-1-1--1--0-0--0-0-0-|
|-------------------------------|

|-------------------------------|
|-------------------------------|
|-------------------------------|
|-0-0-0-0--0-0-0--0--0-0--0-0-0-|
|-0-0-0-0--0-0-0--0--0-0--0-0-0-|
|-1-1-1-1--1-1-1--1--0-0--0-0-0-|


Pre-chorus X1
Gtr 1(wah(i think so..))
        (repeat these riffs many times)

|--------------------------|------------------|
|--------------------------|------------------|
|-10-10-10-10--10-10-10-10-|-9-9-9-9--9-9-9-9-|
|-x--x--x--x---x--x--x--x--|-x-x-x-x--x-x-x-x-|
|-8--8--8--8---8--8--8--8--|-7-7-7-7--7-7-7-7-|
|--------------------------|------------------|

Gtr 2

|------------------------------|
|------------------------------|
|------------------------------|
|-5~~~~-3~-5~~~~-7~-5~~~~-7~~~-|
|-5~~~~-3~-5~~~~-7~-5~~~~-7~~~-|
|-5~~~~-3~-5~~~~-7~-5~~~~-7~~~-|


Chorus X1
Both guitars

|------------------------------------------------------|
|------------------------------------------------------|
|--------------3~3~3~2~2~2~----------------------------|
|-0~~0~~0~~2-3-3~3~3~2~2~2~2~2~2~--------1~~1~1/6~6~6~-|
|-0~~0~~0~~2-3-1~1~1~0~0~0~2~2~2~0202020-1~~1~1/6~6~6~-|
|-0~~0~~0~~2-3-------------2~2~2~0202020-1~~1~1/6~6~6~-|
                                 *******

|---------------------------------------------------------------|
|---------------------------------------------------------------|
|--------------5~5-5~5~5-5~8~/3~-3-3-3-2~2~2~2~3-2-3-2~---------|
|-0~~0~~0~~2-3-5~5-5~5~5-5~8~/3~-3-3-3-2~2~2~2~3-2-3-2~-------0-|
|-0~~0~~0~~2-3-3~3-3~3~3-3~6~/1~-1-1-1-0~0~0~0~1-0-1-0~-5-3-5-0-|
|-0~~0~~0~~2-3------------------------------------------5-3-5-0-|
                                                        * * *

Breakdown riff X1
Gtr 2(palm muted)

|-------------------------------------------------------------------|
|-------------------------------------------------------------------|
|-------------------------------------------------------------------|
|-------------------------------------------------------------------|
|--------------------------------5----------------------------6-----|
|-0-3-0-3-5-3-0-6--5-0-5-6-0-6-7---0-3-0-3-5-3-0-6--0-5-0-5-6---6-5-|


Intro 3rd part X2
Gtr 1(wah)
|------------------------------------------------------------------|
|-13-13--13--13-13--13--13-13--13--12-12--12--12-12--12--12-12--12-|
|-x--x---x---x--x---x---x--x---x---x--x---x---x--x---x---x--x---x--|
|-11-11--11--11-11--11--11-11--11--10-10--10--10-10--10--10-10--10-|
|------------------------------------------------------------------|
|------------------------------------------------------------------|

Gtr 2

|-------------------------------------------------------------------|
|-------------------------------------------------------------------|
|-------------------------------------------------------------------|
|-------------------------------------------------------------------|
|--------------------------------5----------------------------6-----|
|-0-3-0-3-5-3-0-6--5-0-5-6-0-6-7---0-3-0-3-5-3-0-6--0-5-0-5-6---6-5-|


Verse X2

Gtr 1(wah)X4

|---------------------------------------|
|---------------------------------------|
|-10-10-10-10--10-10-10--10--9-9--9-9-9-|
|-x--x--x--x---x--x--x---x---x-x--x-x-x-|
|-8--8--8--8---8--8--8---8---7-7--7-7-7-|
|---------------------------------------|

Gtr 2
X2
|-------------------------------|
|-------------------------------|
|-3-3-3-3--3-3-3--3--3-3--3-3-3-|
|-3-3-3-3--3-3-3--3--3-3--3-3-3-|
|-1-1-1-1--1-1-1--1--0-0--0-0-0-|
|-------------------------------|

|-------------------------------|
|-------------------------------|
|-------------------------------|
|-0-0-0-0--0-0-0--0--0-0--0-0-0-|
|-0-0-0-0--0-0-0--0--0-0--0-0-0-|
|-1-1-1-1--1-1-1--1--0-0--0-0-0-|


Pre-chorus X1
Gtr 1(wah(i think so))
        (repeat these riffs many times)

|--------------------------|------------------|
|--------------------------|------------------|
|-10-10-10-10--10-10-10-10-|-9-9-9-9--9-9-9-9-|
|-x--x--x--x---x--x--x--x--|-x-x-x-x--x-x-x-x-|
|-8--8--8--8---8--8--8--8--|-7-7-7-7--7-7-7-7-|
|--------------------------|------------------|

Gtr 2

|------------------------------|
|------------------------------|
|------------------------------|
|-5~~~~-3~-5~~~~-7~-5~~~~-7~~~-|
|-5~~~~-3~-5~~~~-7~-5~~~~-7~~~-|
|-5~~~~-3~-5~~~~-7~-5~~~~-7~~~-|


Chorus X1
Both guitars

||------------------------------------------------------|
|------------------------------------------------------|
|--------------3~3~3~2~2~2~----------------------------|
|-0~~0~~0~~2-3-3~3~3~2~2~2~2~2~2~--------1~~1~1/6~6~6~-|
|-0~~0~~0~~2-3-1~1~1~0~0~0~2~2~2~0202020-1~~1~1/6~6~6~-|
|-0~~0~~0~~2-3-------------2~2~2~0202020-1~~1~1/6~6~6~-|
                                 *******

|---------------------------------------------------------------|
|---------------------------------------------------------------|
|--------------5~5-5~5~5-5~8~/3~-3-3-3-2~2~2~2~3-2-3-2~---------|
|-0~~0~~0~~2-3-5~5-5~5~5-5~8~/3~-3-3-3-2~2~2~2~3-2-3-2~-------0-|
|-0~~0~~0~~2-3-3~3-3~3~3-3~6~/1~-1-1-1-0~0~0~0~1-0-1-0~-5-3-5-0-|
|-0~~0~~0~~2-3------------------------------------------5-3-5-0-|
                                                        * * *



Sorry ladies and gentlemen , I cannot figure out the solo,
but I can say, what solo is playing with wah pedal.

Pre-solo(and undersolo)riff X2
Gtr 2
1st part X2

|-------------------------------------------------------------------|
|-----------------------------(here guitar sounds with some effect)-|
|------------------------------------5/7-7-7--7/10-10-10------------|
|------------------------------------x---x-x--x----x--x-------------|
|------------------------------------3/5-5-5--5/8--8--8-------------|
|-0-0--0--0-0--0--0-0--0--0-0-0-0--0--------------------------------|
                                                     
|-------------------------------------------------------------------|
|-----------------------------(here guitar sounds with some effect)-|
|------------------------------------5/7-7-7------------------------|
|------------------------------------x---x-x--5/6-6-5/6-6-----------|
|------------------------------------3/5-5-5--x---x-x---x-----------|
|-0-0--0--0-0--0--0-0--0--0-0-0-0--0----------5/6-6-5/6-6-----------|

2nd part X1

|---------------------------------------------------------------------|
|---------------------------------------------------------------------|
|-3-3-3-3-3-3-3-3--3-3-3-3-3-3-3-3----------------------------3-3-3-3-|
|-3-3-3-3-3-3-3-3--3-3-3-3-3-3-3-3--3-3-3-3-3-3-6-6~-6~-8~-8~-3-3-3-3-|
|-1-1-1-1-1-1-1-1--1-1-1-1-1-1-1-1--3-3-3-3-3-3-6-6~-6~-8~-8~-1-1-1-1-|
|-----------------------------------3-3-3-3-3-3-6-6~-6~-8~-8~---------|


Chorus X2
Both guitars

|------------------------------------------------------|
|------------------------------------------------------|
|--------------3~3~3~2~2~2~----------------------------|
|-0~~0~~0~~2-3-3~3~3~2~2~2~2~2~2~--------1~~1~1/6~6~6~-|
|-0~~0~~0~~2-3-1~1~1~0~0~0~2~2~2~0202020-1~~1~1/6~6~6~-|
|-0~~0~~0~~2-3-------------2~2~2~0202020-1~~1~1/6~6~6~-|
                                 *******

|---------------------------------------------------------------|
|---------------------------------------------------------------|
|--------------5~5-5~5~5-5~8~/3~-3-3-3-2~2~2~2~3-2-3-2~---------|
|-0~~0~~0~~2-3-5~5-5~5~5-5~8~/3~-3-3-3-2~2~2~2~3-2-3-2~-------0-|
|-0~~0~~0~~2-3-3~3-3~3~3-3~6~/1~-1-1-1-0~0~0~0~1-0-1-0~-5-3-5-0-|
|-0~~0~~0~~2-3------------------------------------------5-3-5-0-|
                                                        * * *


Outro(both guitars)(both parts X4)
|--------------------------------||--------------------------------|
|--------------------------------||--------------------------------|
|--------------------------------||--------------------------------|
|--------------------------------||--------------------------------|
|--------------------------------||-0-0-0-0-0-0-0--0--0--0-0-0-0-0-|
|-0-0-0-0-0-0-0--0--0--0-0-0-0-0-||-0-0-0-0-0-0-0--0--0--0-0-0-0-0-|
                                    * * * * * * *  *  *  * * * * *
comments
print report bad tab
I want to post or [tab]
guest
You may want to rate the tab now too:
select rating
Please do not post tabs as comments. Select "correction" instead!