Oops, an error
Loading. Please wait.

The Light tab

version 1
version 1

Whole song

Interactive

Video

10,005 views 48 this week
7 commentsread comments
1 2 3 4 5
x 5
add to favorites
×
Save as Personal and add changes to this tab that will be seen only by you. Learn more ›
×
You can save this tab as Personal to edit and correct it or add notes. All changes will be seen only by you. Learn more »
launch autoscroll
font size
0
reset
how to read this tab
guitar tuner
backing track
0:00
0:00
edit
Autoscroll
slow
fast
+/-
esc
set tempo
stop
Disturbed - The Light

Let me know what you think, I know Dan said he'd never, or really is not interested in playing below drop C,
but this most definitely is! Did my best here by ear, left one part out I can't nail down so help is
appreciated. Comments and constructive criticism appreciated!!

SpyderPB6@ g mail.com


[Intro]

C#|----------------------------------------------------------------------------------------------------------|
G#|----------------------------------------------------------------------------------------------------------|
E |----------------------------------------------------------------------------------------------------------|
B |-9-9-9-9-9-9-9-9------------------------------------------------------------------------------------------|
F#|-----------------9-9-9-9-9-9-9-9-8-8-8-8-8-8-8-8-5-5-5-5-5-5-5-5-2-2-2-2-2-2-2-2-4-4-4-4-4-4-4-4----------|
B |----------------------------------------------------------------------------------------------------------|
   Palm muted   
                            
C#|----------------------------------------------------------------------------------------------------------|
G#|----------------------------------------------------------------------------------------------------------|
E |----------------------------------------------------------------------------------------------------------|
B |----------------------------------------------------------------------------------------------------------|
F#|-10-10-10-10-10-10-10-10-8-8-8-8-8-8-8-8------------------------------------------------------------------|
B |----------------------------------------------------------------------------------------------------------|
   Palm muted  till 8s 


[Intro] x4
   
C#|----------------------------------------------------------------------------------------------------------|
G#|-----------------------------12-12-12---------------------------------------------------------------------|
E |--X--X--X--X--X--X--X--X--X--X--X--X--X--X--X--X----------------------------------------------------------|
B |--9--9--9--9--9--9--9--9--9--9--9--9--8--8--8--8----------------------------------------------------------|
F#|--7--7--7--7--7--7--7--7--7--7--7--7--6--6--6--6----------------------------------------------------------|
B |--7--7--7--7--7--7--7--7--7--7--7--7--6--6--6--6----------------------------------------------------------|

   
[Verse]
   
C#|-----------------------------------|----------------------------------------------------------------------|
G#|-----------------------------------|----------------------------------------------------------------------|
E |-----------------------------------|-9/10-10-10/10-10-10/12-12--------------------------------------------|
B |-----------------------------------|----------------------------------------------------------------------|
F#|-----------------------------------|-7/8--8--8/-12-12-12/14-14-5h7-4-0------------------------------------|
B |--7-7-7-7-7-7-7-7-777-7-7-6-6-6-6--|----------------------------------------------------------------------|
   Play riff 4x                              Play riff 1x

C#|-----------------------------------|----------------------------------------------------------------------|
G#|-----------------------------------|----------------------------------------------------------------------|
E |-----------------------------------|-9/10-10-10/10-10-10/12-12--------------------------------------------|
B |-----------------------------------|----------------------------------------------------------------------|
F#|-----------------------------------|-7/8--8--8/-12-12-12/14-14-5h7-4-0------------------------------------|
B |--7-7-7-7-7-7-7-7-777-7-7-6-6-6-6--|----------------------------------------------------------------------|
   Play riff 4x palm muted                    Play riff 1x 
        
    
C#|----------------------------------------------------------------------------------------------------------|
G#|----------------------------------------------------------------------------------------------------------|
E |----------------------------------------------------------------------------------------------------------|
B |----------------------------------------------------------------------------------------------------------|
F#|----------------------------------------------------------------------------------------------------------|
B |--7-7-7-7-7-7-7-7-777-7-7-6-6-6-6--7-7-7-7-7-7-7-7-7-7-7-7-7----------------------------------------------|
   Play 1x palm muted.........................unit here. 
 

[Chorus]

C#|----------------------------------------------------------------------------------------------------------|
G#|----------------------------------------------------------------------------------------------------------|
E |--4-4-4-X-4-4-4-4--2-2-2-X-2-2-2-2------------------------------------------------------------------------|
B |--4-4-4-X-4-4-4-4--2-2-2-X-2-2-2-2-------------------5----------------------------------------------------|
F#|--4-4-4-X-4-4-4-4--2-2-2-X-2-2-2-2--0--0--0--0-----------12-0-0-0-12-0-0-0-12-0---------------------------|
B |--4-4-4-X-4-4-4-4--2-2-2-X-2-2-2-2--0--0--0--0-0-3-5-----12-0-0-0-12-0-0-0-12-0---------------------------|
   Harmonics on the "x"                              x x x    
 
C#|----------------------------------------------------------------------------------------------------------|
G#|----------------------------------------------------------------------------------------------------------|
E |----------------------------------------------------------------------------------------------------------|
B |----------------------------------------------------------------------------------------------------------|
F#|--7h9-9-9-9-7h9-9-9-9-7h9-9--9h12-12-12-9h12---12~--------------------------------------------------------|
B |--7h9-9-9-9-7h9-9-9-9-7h9-9--9h12-12-12-9h12---12~--------------------------------------------------------|

 
[Verse 2]

C#|----------------------------------------------------------------------------------------------------------|
G#|--14~~-12~~-15~~/9~~10~~/5~~-4~~--------------------------------------------------------------------------|
E |----------------------------------------------------------------------------------------------------------|
B |----------------------------------------------------------------------------------------------------------|
F#|----------------------------------------------------------------------------------------------------------|
B |----------------------------------------------------------------------------------------------------------|
   Play riff 1x
 
C#|-------------------------------------|--------------------------------------------------------------------|
G#|-------------------------------------|--------------------------------------------------------------------|
E |--9/10-10-10/10-10-10/12-12----------|--------------------------------------------------------------------|
B |-------------------------------------|--------------------------------------------------------------------|
F#|--7/8--8--8/-12-12-12/14-14-5h7-4-0--|--------------------------------------------------------------------|
B |-------------------------------------|--7-7-7-7-7-7-7-7-777-7-7-6-6-6-6-----------------------------------|
   Play riff 1x                            Play riff 4x  palm muted  
                    
C#|-------------------------------------|--------------------------------------------------------------------|
G#|-------------------------------------|--------------------------------------------------------------------|
E |--9/10-10-10/10-10-10/12-12----------|--------------------------------------------------------------------|
B |-------------------------------------|--------------------------------------------------------------------|
F#|--7/8--8--8/-12-12-12/14-14-5h7-4-0--|--------------------------------------------------------------------|
B |-------------------------------------|--7-7-7-7-7-7-7-7-777-7-7-6-6-6-6--7-7-7-7-7-7-7-7-7-7-7-7-7--------|
   Play riff 1x                            Play 1x palm muted until -------------------hereish.

 
[Chorus]

C#|----------------------------------------------------------------------------------------------------------|
G#|----------------------------------------------------------------------------------------------------------|
E |--4-4-4-X-4-4-4-4--2-2-2-X-2-2-2-2------------------------------------------------------------------------|
B |--4-4-4-X-4-4-4-4--2-2-2-X-2-2-2-2-------------------5----------------------------------------------------|
F#|--4-4-4-X-4-4-4-4--2-2-2-X-2-2-2-2--0--0--0--0-----------12-0-0-0-12-0-0-0-12-0---------------------------|
B |--4-4-4-X-4-4-4-4--2-2-2-X-2-2-2-2--0--0--0--0-0-3-5-----12-0-0-0-12-0-0-0-12-0---------------------------|
   Harmonics on the "x"                              x x x    
 
C#|----------------------------------------------------------------------------------------------------------|
G#|----------------------------------------------------------------------------------------------------------|
E |----------------------------------------------------------------------------------------------------------|
B |----------------------------------------------------------------------------------------------------------|
F#|--7h9-9-9-9-7h9-9-9-9-7h9-9--9h12-12-12-9h12---12~--------------------------------------------------------|
B |--7h9-9-9-9-7h9-9-9-9-7h9-9--9h12-12-12-9h12---12~--------------------------------------------------------|
  
  
[Bridge]
   
C#|---------------------------------------------------|------------------------------------------------------|
G#|-----/15-15-15------/5h6-6-6-6--\4-4-4-------------|--------------------------------\4-4-4----------------|
E |--7-7----------7-7-7-----------7-------77755588857-|-7-7-x-x--x-x--7-7-x-x--x-x--7-7-------7-7-7-7--------|
B |--7-7----------7-7-7-----------7-------77755588857-|-7-7-x-x--x-x--7-7-x-x--x-x--7-7-------7-7-7-7--------|
F#|--7-7----------7-7-7-----------7-------77755588857-|-7-7-x-x--x-x--7-7-x-x--x-x--7-7-------7-7-7-7--------|
B |--7-7----------7-7-7-----------7-------77755588857-|-7-7-x-x--x-x--7-7-x-x--x-x--7-7-------7-7-7-7--------|
   Riff 2x                                             Riff 1x
   
C#|---------------------------------------------------|------------------------------------------------------|
G#|-----/15-15-15------/5h6-6-6-6--\4-4-4-------------|------------------------------------------------------|
E |--7-7----------7-7-7-----------7-------77755588857-|------------------------------------------------------|
B |--7-7----------7-7-7-----------7-------77755588857-|------------------------------------------------------|
F#|--7-7----------7-7-7-----------7-------77755588857-|------------------------------------------------------|
B |--7-7----------7-7-7-----------7-------77755588857-|-Working on this little part still--------------------|
   Riff 1x
 
C#|----------------------------------------------------------------------------------------------------------|
G#|--14~~-12~~-15~~/9~~10~~/5~~-4~~--------------------------------------------------------------------------|
E |----------------------------------------------------------------------------------------------------------|
B |----------------------------------------------------------------------------------------------------------|
F#|----------------------------------------------------------------------------------------------------------|
B |----------------------------------------------------------------------------------------------------------|


[Chorus]

C#|----------------------------------------------------------------------------------------------------------|
G#|----------------------------------------------------------------------------------------------------------|
E |--4-4-4-X-4-4-4-4--2-2-2-X-2-2-2-2------------------------------------------------------------------------|
B |--4-4-4-X-4-4-4-4--2-2-2-X-2-2-2-2-------------------5----------------------------------------------------|
F#|--4-4-4-X-4-4-4-4--2-2-2-X-2-2-2-2--0--0--0--0-----------12-0-0-0-12-0-0-0-12-0---------------------------|
B |--4-4-4-X-4-4-4-4--2-2-2-X-2-2-2-2--0--0--0--0-0-3-5-----12-0-0-0-12-0-0-0-12-0---------------------------|
   Harmonics on the "x"                              x x x    

C#|----------------------------------------------------------------------------------------------------------|
G#|----------------------------------------------------------------------------------------------------------|
E |----------------------------------------------------------------------------------------------------------|
B |----------------------------------------------------------------------------------------------------------|
F#|--7h9-9-9-9-7h9-9-9-9-7h9-9--9h12-12-12-9h12-12-----------------------------------------------------------|
B |--7h9-9-9-9-7h9-9-9-9-7h9-9--9h12-12-12-9h12-12-----------------------------------------------------------|


[Outro]

C#|----------------------------------------------------------------------------------------------------------|
G#|----------------------------------------------------------------------------------------------------------|
E |--4-4-4-X-4-4-4-4--2-2-2-X-2-2-2-2------------------------------------------------------------------------|
B |--4-4-4-X-4-4-4-4--2-2-2-X-2-2-2-2-------------------5----------------------------------------------------|
F#|--4-4-4-X-4-4-4-4--2-2-2-X-2-2-2-2--0--0--0--0-----------12-0-0-0-12-0-0-0-12-0---------------------------|
B |--4-4-4-X-4-4-4-4--2-2-2-X-2-2-2-2--0--0--0--0-0-3-5-----12-0-0-0-12-0-0-0-12-0---------------------------|
   Harmonics on the "x"                              x x x    
  
C#|----------------------------------------------------------------------------------------------------------|
G#|----------------------------------------------------------------------------------------------------------|
E |----------------------------------------------------------------------------------------------------------|
B |----------------------------------------------------------------------------------------------------------|
F#|--7h9-9-9-9-7h9-9-9-9-7h9-9--9h12-12-12-9h12---12~--------------------------------------------------------|
B |--7h9-9-9-9-7h9-9-9-9-7h9-9--9h12-12-12-9h12---12~--------------------------------------------------------|



************************************

| x  Dead note
| h  Hammer-on
| /  Slide up
| \  Slide down
| ~  Vibrato 

************************************

            
            
Suggest correction
Creating personal tab
Creating personal tab
You can edit any tab online and save it as your Personal.

You can edit, replace or remove any tab part or add personal notes – all changes will be seen only by you.

Personal tabs can be accessed anytime from any device, even offline.
Learn more »
comments
print report bad tab
7 comments total. Showing first comments.
-1 reply
incubosity 1,595 Oct 20, 2015 07:25 AM

It just sounds absolutely nothing like the song. I'm lost without time points or headings to what part is what ex. chorus, verse, bridge, etc.

0 reply
awkacz14 114 Dec 08, 2015 01:36 PM

terrible tab. nothing right. only gave it two stars because now i know what not to do when i write my tab

0 reply
awkacz14 114 Apr 05, 2016 11:12 AM

Chord changes missing or out of place. Just completely wrong. Doesnt sound at all like it. Whole parts missing and everything that is here is just completely wrong

guest
You may want to rate the tab now too:
select rating
Wanna post a correction for this tab? Suggest correction