Oops, an error
Loading. Please wait.

The Night Bass Tab

version 1
version 1

Whole song

Interactive

15,545 views 15 this week
2 commentsread comments
1 2 3 4 5
excellent!
x 4
add to favorites
launch autoscroll
font size
0
reset
guitar tuner
Tab Pro tools
  • play this tab
  • loop segment
  • change instrument
  • show fretboard
  • metronome
×
Best way to learn
"The Night"
Autoscroll
slow
fast
+/-
esc
set tempo
stop
Contributor
Tuning C,G,C,F
The Night-By Disturbed

This is my first tab so go easy, I think it's about 97% right. Enjoy

Intro
F|--------------------------------------------------------------|
C|--------------------------------------------------------------|
G|--------------------------------------------------------------|
C|0~------------------------------------------------------------|

F|--------------------------------------------------------------|
C|--------------------------------------------------------------|
G|--------------------------------------------------------------|
C|0000-0000-00-0000-0000-00--0~--0~--0--------------------------|

F|--------------------------------------------------------------|
C|--------------------------------------------------------------|
G|--------------------------------------------------------------|
C|0000-0000-00-0000-0000-00-------------------------------------|

Verse 1
F|--------------------------------------------------------------|
C|--------------------------------------------------------------|
G|--------------------------6-----6-----6--6-----6-----6--------|
C|000-00-000-00-000-00-0023--0000--0000--00--0000--0000--00--0--|x2

Verse 2
F|--------------------------------------------------------------|
C|--------------------------------------------------------------|
G|--------------------------------------------------------------|
C|0-0000-000-0-0000-111-3333-0----------------------------------|x3

F|--------------------------------------------------------------|
C|--------------------------------------------------------------|
G|--------------------------------------------------------------|
C|0-0000-000-0-0000-0000-333-111--------------------------------|

Pre-Chorus
F|--------------------------------------------------------------|
C|--------------------------------------------------------------|
G|--------------------------------------------------------------|
C|65-65-6-6-5-5-658---------------------------------------------|

F|--------------------------------------------------------------|
C|--------------------------------------------------------------|
G|--------------------------------------------------------------|
C|65-65-6-6-5-5-6--5--3-----------------------------------------|

Chorus
F|-------------------------------------------------------------------------|
C|-------------------------------------------------------------------------|
G|-------------------------------------------------------------------------|
C|5555-555-5-5-553-1111-111-1-1-1111-8888-888-8-8-888-10-0000-10-0000-5-33-|

F|-------------------------------------------------------------------------|
C|-------------------------------------------------------------------------|
G|-------------------------------------------------------------------------|
C|5555-555-5-5-553-1111-111-1-1-1111-8888-888-8-8-888-10-play eight 10's---|

Play Verse 1 x3

Play the first part of verse 2 then play this
F|-------------------------------------------------------------------------|
C|-------------------------------------------------------------------------|
G|6--5-3-56-55556----------------------------------------------------------|
C|-------------------------------------------------------------------------|

Play Pre-Chorus
Play Chorus

Guitar Solo Part
F|----------------------------------|
C|----------------------------------|
G|----------------------------------|
C|0-000-000-0-0-000-0-0000-000-000--|Basically just a bunch of open C's in a weird rythm

F|-------------------------------------------------------------------------|
C|-------------------------------------------------------------------------|
G|6-----6-----6--6-----6-----6---------------------------------------------|
C|-0000--0000--00--0000--0000--00--0---------------------------------------|
Play all this over and over til solo ends.

Last Chorus
Chorus
F|-------------------------------------------------------------------------|
C|-------------------------------------------------------------------------|
G|-------------------------------------------------------------------------|
C|5555-555-5-5-553-1111-111-1-1-1111-8888-888-8-8-888-10-0000-10-0000-5-33-|x4

F|-------------------------------------------------------------------------|
C|-------------------------------------------------------------------------|
G|-------------------------------------------------------------------------|
C|5555-555-5-5-553-1111-111-1-1-1111-8888-888-8-8-888-10-play eight 10's---|

Ending
F|--------------------------------------------------------------|
C|--------------------------------------------------------------|
G|--------------------------------------------------------------|
C|000-00-000-00-000-00-0023-------------------------------------|x4
comments
print report bad tab
2 comments total.
+1 reply
the Deuce wrote on July 9 2009, 09:16 pm

nice tab man, keep em commin

0 reply
happygoth wrote on March 22 2010, 04:28 pm

Disturbed uses a 5stg bass and i thing that they have it in standard tuning but thats the only thing i had a problem with. good tab:)

I want to post or [tab]
guest
You may want to rate the tab now too:
select rating
Please do not post tabs as comments. Select "correction" instead!