Oops, an error
Loading. Please wait.

The Night Tab

version 1
version 1

Intro

Whole song

Interactive

45,726 views 3 this week
15 commentsread comments
1 2 3 4 5
accurate
x 9
add to favorites
launch autoscroll
font size
0
reset
how to read this tab
guitar tuner
Autoscroll
slow
fast
+/-
esc
set tempo
stop
Help us to improve Ultimate-Guitar.com Take our survey!
×
Author
Difficulty
Tuning
intermediate
C G C F A D
Disturbed: The Night

Transcribed by: Andrew Zara (disturbedfreak0520@yahoo.com)

Date last modified: June 10, 2008

PLEASE DO NOT COPY THIS TAB TO ANOTHER SITE
WITHOUT THE AUTHORS' PERMISSION. THANK YOU.

Tuning: Drop C (C,G,C,F,A,D)

Notes: Just the intro here guys, I'll finish the solo soon.

Intro
D|-----------------------------------8-|
A|-------------------------------6/8---|
F|---------------------------7/9-------|
C|----------/8-7--------/8-7-----------|
G|-0-/6-5----------/6-5----------------|
C|-0------0------0---------------------|

D|-----------------------------------------------------|
A|-----------------------------------------------------|
F|-----------------------------------------------------|
C|-8---------8---------8-----7---------7---------7-----|
G|-6---------6---------6-----6---------6---------6-----|
C|---0-0-0-0---0-0-0-0---0-0---0-0-0-0---0-0-0-0---0-0-|
     * * * *   * * * *   * *   * * * *   * * * *   * *

D|-----------------------------------0-|
A|-------------------------------6/8---|
F|---------------------------7/9-------|
C|----------/8-7--------/8-7-----------|
G|-0-/6-5----------/6-5----------------|
C|-0------0------0---------------------|

D|-----------------------------------------------------|
A|-----------------------------------------------------|
F|-----------------------------------------------------|
C|-8---------8---------8-----7---------7---------7-----|
G|-6---------6---------6-----6---------6---------6-----|
C|---0-0-0-0---0-0-0-0---0-0---0-0-0-0---0-0-0-0---0-0-|
     * * * *   * * * *   * *   * * * *   * * * *   * *

Pre-Chorus: Rythm may be off, but you get the idea.
D|-------------------------------------------------|
A|-------------------------------------------------|
F|-------------------------------------------------|
C|-------------------------------------------------|
G|-0--0-0-0-0-0--0-0-0-0--0-0-0-0-0--1-1-1-3-3-3-3-|
C|-0--0-0-0-0-0--0-0-0-0--0-0-0-0-0--1-1-1-3-3-3-3-|
   *  * * * * *  * * * *  * * * * *  * * * * * * *

D|-------------------------------------------------|
A|-------------------------------------------------|
F|-------------------------------------------------|
C|-------------------------------------------------|
G|-0--0-0-0-0-0--0-0-0-0--0-0-0-0-0--3-3-3-1-1-1-1-| Repeat
C|-0--0-0-0-0-0--0-0-0-0--0-0-0-0-0--3-3-3-1-1-1-1-|
   *  * * * * *  * * * *  * * * * *  * * * * * * *

D|-----------------------------------------------------|
A|-----------------------------------------------------|
F|-----------------------------------------------------|
C|-----------------------------------------------------|
G|-6-6-6-5--6-6-6-5--x-x-5-x-x-5--6-6-6-5--6-6-6\1-1-1-| Repeat
C|-6-6-6-5--6-6-6-5--x-x-5-x-x-5--6-6-6-5--6-6-6\1-1-1-|

Chorus
D|------------------------------------------------|
A|------------------------------------------------|
F|------------------------------------------------|
C|------------------------------------------------|
G|-5-5-5-5--5-5-5-7--3-3-3--1-1-1-1--1-1-1-1--1-1-|
C|-5-5-5-5--5-5-5-7--3-3-3--1-1-1-1--1-1-1-1--1-1-|

D|--------------------------------------------|
A|--------------------------------------------|
F|--------------------------------------------|
C|-3-3-3-3--3-3-3-3--3-3--5-5-5-5-5-5-5-5-5-5-|
G|-1-1-1-1--1-1-1-1--1-1--3-3-3-3-3-3-3-3-3-3-|
C|--------------------------------------------|

This is kind of like my rough draft of this song. I will definetly be adding and 
this song like the solo and ending.
Suggest correction
What's this?
You can suggest a correction to this tab. Community and Mods will review your correction and vote to approve or reject it.
comments
print report bad tab
15 comments total. Showing first comments.
0 reply
Shicaka 90 wrote on June 11 2008, 12:18 pm

nice tab it sounds pretty on, obviously except for the missing parts lol, but thanks! i love it!... what scale/s does Dan use? anyone know?

0 reply
Killbait06 248 wrote on June 11 2008, 01:59 pm

THANK YOU, ive been waiting for a tab , this song is the best on their new album! good job dude

0 reply
fretman5000 396 wrote on June 12 2008, 01:13 pm

this song rocks. nice tab man.

guest
You may want to rate the tab now too:
select rating
Please do not post tabs as comments. Select "correction" instead!