Oops, an error
Loading. Please wait.

The Night Tab

version 2
version 2
116,935 views 9 this week
20 commentsread comments
1 2 3 4 5
x 32
add to favorites
launch autoscroll
font size
0
reset
how to read this tab
guitar tuner
Autoscroll
slow
fast
+/-
esc
set tempo
stop
Help us to improve Ultimate-Guitar.com Take our survey!
×
Author
Difficulty
Tuning
intermediate
C G C F A D
this is my first tab so i hope you enjoy

[EDIT]:VER 2.0 (i have read many comments and have edited this tab to compensate after much more 
                  research and trial and error)


Some of the patterns change throughout the song so listen carefully and you will pick them up

[Intro]

Guitar 1 
                                 
                                   let ring
                                   ______________

D|------------------------------------0------------|
A|--------------------------------------6-----13---|
F|----------------------------------7------12------|
C|-------------------------------------------------|
G|---0-/6p5---/13p12---/6p5--/13p12----------------|
C|---0------0--------0-----------------------------|

D|--------------------------------------------------------|
A|--------------------------------------------------------|
F|--------------------------------------------------------|
C|---8---------8---------8-----7---------7---------7------|
G|---6-0-0-0-0-6-0-0-0-0-6-0-0-6-0-0-0-0-6-0-0-0-0-6-0-0--|
C|-----0-0-0-0---0-0-0-0---0-0---0-0-0-0---0-0-0-0---0-0--|
      * * * *   * * * *   * *   * * * *   * * * *   * *

                                   let ring
                                   ________

D|------------------------------------0------------|
A|--------------------------------------6--8-------|
F|----------------------------------7--------9v----|
C|-------------------------------------------------|
G|-----/6p5---/13p12---/6p5--/13p12----------------|
C|---0------0--------0-----------------------------|


D|--------------------------------------------------------|
A|--------------------------------------------------------|
F|--------------------------------------------------------|
C|---8---------8---------8-----7---------7---------7------|
G|---6-0-0-0-0-6-0-0-0-0-6-0-0-6-0-0-0-0-6-0-0-0-0-6-0-0--|
C|-----0-0-0-0---0-0-0-0---0-0---0-0-0-0---0-0-0-0---0-0--|
      * * * *   * * * *   * *   * * * *   * * * *   * *

Guitar 2:


D|------------------------------------------------|
A|------------------------------------------------|
F|------------------------------------------------|
C|---0--------------------------------------------|
G|---0--------------------------------------------|
C|---0--------------------------------------------|

D|--------------------------------------------------------|
A|--------------------------------------------------------|
F|--------------------------------------------------------|
C|--------------------------------------------------------|
G|-----0-0-0-0---0-0-0-0---0-0---0-0-0-0---0-0-0-0---0-0--|
C|-----0-0-0-0---0-0-0-0---0-0---0-0-0-0---0-0-0-0---0-0--|
      * * * *   * * * *   * *   * * * *   * * * *   * *

D|--------------------------------------------------|
A|--------------------------------------------------|
F|--------------------------------------------------|
C|---0-------0-------0------------------------------|
G|---0-------0-------0------------------------------|
C|---0-------0-------0------------------------------|

D|--------------------------------------------------------|
A|--------------------------------------------------------|
F|--------------------------------------------------------|
C|--------------------------------------------------------|
G|-----0-0-0-0---0-0-0-0---0-0---0-0-0-0---0-0-0-0---0-0--|
C|-----0-0-0-0---0-0-0-0---0-0---0-0-0-0---0-0-0-0---0-0--|
      * * * *   * * * *   * *   * * * *   * * * *   * *

Verse Part 1:

Both Guitars play Guitar 1

Verse Part 2:

|---------------------------------|
|---------------------------------|
|---------------------------------|
|-0-00-000-0-000-0-000-0-111-3333-|
|-0-00-000-0-000-0-000-0-111-3333-|
D|  * ** *** * *** * *** * *** ****
A|---------------------------------|
F|---------------------------------|
C|---------------------------------|
G|-0-00-000-0-000-0-000-0-333-1111-|
C|-0-00-000-0-000-0-000-0-333-1111-|
  * ** *** * *** * *** * *** ****

|---------------------------------|
|---------------------------------|
|---------------------------------|
|-0-00-000-0-000-0-000-0-111-3333-|
|-0-00-000-0-000-0-000-0-111-3333-|
D|  * ** *** * *** * *** * *** ****
A|---------------------------------|
F|---------------------------------|
C|---------------------------------|
G|-0-00-000-0-000-0-000-0-333-1111-|
C|-0-00-000-0-000-0-000-0-333-1111-|
  * ** *** * *** * *** * *** ****

[Pre-Chorus]

|---------------------------------|
|---------------------------------|
|---------------------------------|
|-6-5---6-5---5--5--6565----6-5-8-|
|-6-5---6-5---5--5--6565----6-5-8-|
             
|---------------------------------|
|---------------------------------|
|---------------------------------|
|-6-5---6-5---5--5--6565----6-5-8-|
|-6-5---6-5---5--5--6565----6-5-8-|


 Chorus:                            all 1's and a 0
D|------------------------------------------------------|
A|------------------------------------------------------|
F|------------------------------------------------------|
C|-5555-5555-5-55---1111-1111-1-11----------------------|
G|-5555-5555-5-55---1111-1111-1-11--1111-1111-1-110-----|
C|-5555-5555-5-55-0-1111-1111-1-110---------------------|

D|-----------------------|
A|-----------------------|
F|-----------------------|
C|-0---------0---------3-|
G|-0-0-0-0-0-0-0-0-0-0-3-|
C|-0-0-0-0-0-0-0-0-0-0-3-|
    * * * *   * * * *
|------------------------------------------------------|
|------------------------------------------------------|
|------------------------------------------------------|
|-5555-5555-5-55---1111-1111-1-11----------------------|
|-5555-5555-5-55---1111-1111-1-11--1111-1111-1-110-----|
|-5555-5555-5-55-0-1111-1111-1-110---------------------|

   gradual release
|-----------------|
|-----------------|
|-5-5-5-5-5-5-5-5-|
|-3-3-3-3-3-3-3-3-|
|-----------------|
  * * * * * * * *   

play Intro again

Then Play Verse Part 1 again

Verse Part 2 Slight variation:

|---------------------------------|
|---------------------------------|
|---------------------------------|
|-0-00-000-0-000-0-000-0-111-3333-|
|-0-00-000-0-000-0-000-0-111-3333-|
D|  * ** *** * *** * *** * *** ****
A|---------------------------------|
F|---------------------------------|
C|---------------------------------|
G|-0-00-000-0-000-0-000-0-333-1111-|
C|-0-00-000-0-000-0-000-0-333-1111-|
  * ** *** * *** * *** * *** ****

|---------------------------------|
|---------------------------------|
|---------------------------------|
|-0-00-000-0-000-0-000-0-111-3333-|
|-0-00-000-0-000-0-000-0-111-3333-|
D|  * ** *** * *** * *** * *** ****
A|-------------------------------------|
F|-2-----------------------------------|
C|-0-----------------------------------|
G|-0-----10----8----5----6-0000-0113311|
C|-0-000-10-00-8-00-5-00-6-0000-0113311|
    ***    **   **   **   **** *******

Play Prechorus Again

Play Chorus Again

[Solo]

Guitar 2: Plays this behind solo

|---------------------------------|
|---------------------------------|
|---------------------------------|
|-0-00-000-0-000-0-000-0-000-0000-|
|-0-00-000-0-000-0-000-0-000-0000-|
    ** *** * *** * *** * *** ****

D|--------------------------------------------------------|
A|--------------------------------------------------------|
F|--------------------------------------------------------|
C|---8---------8---------8-----7---------7---------7------|
G|---6-0-0-0-0-6-0-0-0-0-6-0-0-6-0-0-0-0-6-0-0-0-0-6-0-0--|
C|-----0-0-0-0---0-0-0-0---0-0---0-0-0-0---0-0-0-0---0-0--|
      * * * *   * * * *   * *   * * * *   * * * *   * *

Guitar 1:

D|----------------------------------------------------------------------------|
A|----------------------------------------------------------------------------|
F|----------------------------------------------------------------------------|
C|-/1312-10-12-8-10-/1312-1012-810-/1312-10-12-8-10-7-8-7-5-------------------|
G|----------------------------------------------------------------------------|
C|----------------------------------------------------------------------------|

D|----------------------------------------------------------------------------------------|
A|----------------------------------------------------------------------------------------|
F|-------15----14b&a------15----14b&a---------------15----14b&a-------------10-11-10------|
C|-/1312----12-------1312----12-------13121012-1312----12-------1312--12-13----------13-12|
G|----------------------------------------------------------------------------------------|
C|----------------------------------------------------------------------------------------|

D|------------------------------------------------------------------------|
A|----------------------------------------------------------141514--------|
F|-------------------------------------------14151412----12--------151415-|
C|-10-12----10-12----10-12----10-12-/15-1312----------13------------------|
G|-------12-------12-------12---------------------------------------------|
C|------------------------------------------------------------------------|

D|------------------------------15b-13-15v--|
A|1415-171817151415171817151415-------------|
F|------------------------------------------|
C|------------------------------------------|
G|------------------------------------------|
C|------------------------------------------|


D|-----15p13----17p13-15p13----17p13-15p13----17p13-15p13----17p13-15p13----17p13-15p13-|
A|--15-------15-------------15-------------15-------------15-------------15-------------|
F|--------------------------------------------------------------------------------------|
C|--------------------------------------------------------------------------------------|
G|--------------------------------------------------------------------------------------|
C|--------------------------------------------------------------------------------------|

D|--------------------------------------------------------------|
A|-151515151515-171717171717-181818181818-202020202020-1818-1717|
F|--------------------------------------------------------------|
C|--------------------------------------------------------------|
G|--------------------------------------------------------------|
C|--------------------------------------------------------------|

D|-20b-20-20-20-20-20-20-20-20-20p17-----17-----17----17----17------------|
A|-----------------------------------20b----20b----20b---20b---20b--18v---|
F|------------------------------------------------------------------------|
C|------------------------------------------------------------------------|
G|------------------------------------------------------------------------|
C|------------------------------------------------------------------------|

 Sweeping Part:                       Tapping Part:
D|-----1720p17-------------------------131722-131722-131722-1317221713-----|
A|---18-------18---------182018----------------------------------------15--|
F|-17-----------17-----17------17------------------------------------------|
C|----------------1917-----------17----------------------------------------|
G|---------------------------------17--------------------------------------|
C|-------------------------------------------------------------------------|

D|----------------------13-------18b-17-16-15-13-15-15b13----13-15-13v------------|
A|------------------13b----13b----------------------------15----------------------|
F|-----10-12-12b-10---------------------------------------------------------------|
C|--12----------------------------------------------------------------------------|
G|--------------------------------------------------------------------------------|
C|--------------------------------------------------------------------------------|

D|-----------------------|
A|-----------------------|
F|-----------------------|
C|--0-3-5-5a3---3--------|
G|------------5---5-3-0--|
C|-----------------------|

Last Note of Solo: Played over chorus

D|-----------------------|
A|-----------------------|
F|-----------------------|
C|-----------------------|
G|--5v-------------------|
C|-----------------------|

Play Chorus X2 with slight variation in the ending of first chorus, same notes but 
pattern. Easy to work out though.

[Outro]
                                   let ring
                                   ______________

D|------------------------------------0------------|
A|--------------------------------------6-----13---|
F|----------------------------------7------12------|
C|-------------------------------------------------|
G|---0-/6p5---/13p12---/6p5--/13p12----------------|
C|---0------0--------0-----------------------------|

                                   let ring
                                   ________

D|------------------------------------0------------|
A|--------------------------------------6--8-------|
F|----------------------------------7--------9v----|
C|-------------------------------------------------|
G|-----/6p5---/13p12---/6p5--/13p12----------------|
C|---0------0--------0-----------------------------|

                                   let ring
                                   ______________

D|------------------------------------0------------|
A|--------------------------------------6-----13---|
F|----------------------------------7------12------|
C|-------------------------------------------------|
G|---0-/6p5---/13p12---/6p5--/13p12----------------|
C|---0------0--------0-----------------------------|

                                   let ring
                                   ________

D|------------------------------------0------------|
A|--------------------------------------6--8-------|
F|----------------------------------7--------9a\---|
C|-------------------------------------------------|
G|-----/6p5---/13p12---/6p5--/13p12----------------|
C|---0------0--------0-----------------------------|



************************************

Legend

\&/= slide
* = palm mute
p&h = pull-off &hammer-on
T = tap
v = vibrato
b = bend
S = Sweep
a = Pinch/Artificial Harmonic (Squeal)

************************************
Suggest correction
comments
print report bad tab
20 comments total. Showing first comments.
0 reply
pigeonmafia 277 Jun 28, 2008 06:50 PM

intro is wrong. the slides are |-/6-5-| on the A string (Tuned to G here) and |-/8-7-| on the D string (tuned to C here).

il look at the rest of the tab at another point

0 reply
Zawlacki 134 Jul 20, 2008 10:37 AM

Good job for your first tablature. This was good for a first time.

0 reply
SpyderPB6 234 Jul 22, 2008 01:56 PM

Very good job on the solo.

guest
You may want to rate the tab now too:
select rating
Wanna post a correction for this tab? Suggest correction