Oops, an error
Loading. Please wait.

The Night Tab

version 4
version 4

Intro

Solo

Whole song

Interactive

Video

1,612 views 3 this week
1 commentread comment
1 2 3 4 5
accurate
x 2
add to favorites
launch autoscroll
font size
0
reset
how to read this tab
guitar tuner
Tab Pro tools
  • play this tab
  • loop segment
  • change instrument
  • show fretboard
  • metronome
×
Best way to learn
"The Night"
Autoscroll
slow
fast
+/-
esc
set tempo
stop
Contributor
Difficulty
Tuning
novice
C G C F A D
Rhythm guitar for beginner guitarist.  There Is no full solo tabbed out. This is my 
first tab too for playing 8 months.

Let me know if anything needs to be changed. Thanks

Tuning: Drop C [CGCFAD]
Key:
/= Slide
P.h = Pinch Harmonic
* = Palm Mute

Intro:

|---------------------------------------------------------------------8-----|
|-------------------------------------------------------------------8-------|
|----------------------------------------------------------7-9-10-----------|
|---------------------------/8-7------------------8-7-----------------------|
|------------/6-5-----------------------/6-5--------------------------------|
|--------0--------------0-------------0-------------------------------------|
         *              *             *


|--------------------------------------------------------|
|--------------------------------------------------------|
|--------------------------------------------------------|
|---8---------8---------8-----7---------7---------7------|
|---6---------6---------6-----6---------6---------6------|
|-----0-0-0-0---0-0-0-0---0-0---0-0-0-0---0-0-0-0---0-0--|
      * * * *   * * * *   * *   * * * *   * * * *   * *


|----------------------------------------------------------------------------|
|--------------------------------------------------------------------8-------|
|----------------------------------------------------------7-9-10-----8------|
|---------------------------/8-7------------------8-7------------------------|
|------------/6-5-----------------------/6-5---------------------------------|
|--------0--------------0-------------0--------------------------------------|
         *              *             *


|-----------------------------------------------------------------|
|-----------------------------------------------------------------|
|-----------------------------------------------------------------|
|---8---------8---------8-----7---------7---------7---------------|
|---6---------6---------6-----6---------6---------6---------------|
|-----0-0-0-0---0-0-0-0---0-0---0-0-0-0---0-0-0-0---0-0-----------|
      * * * *   * * * *   * *   * * * *   * * * *   * *

|---------------------------------------------------------------------8-----|
|-------------------------------------------------------------------8-------|
|----------------------------------------------------------7-9-10-----------|
|---------------------------/8-7------------------8-7-----------------------|
|------------/6-5-----------------------/6-5--------------------------------|
|--------0--------------0-------------0-------------------------------------|
         *              *             *


|--------------------------------------------------------|
|--------------------------------------------------------|
|--------------------------------------------------------|
|---8---------8---------8-----7---------7---------7------|
|---6---------6---------6-----6---------6---------6------|
|-----0-0-0-0---0-0-0-0---0-0---0-0-0-0---0-0-0-0---0-0--|
      * * * *   * * * *   * *   * * * *   * * * *   * *


|----------------------------------------------------------------------------|
|--------------------------------------------------------------------8-------|
|----------------------------------------------------------7-9-10-----8------|
|---------------------------/8-7------------------8-7------------------------|
|------------/6-5-----------------------/6-5---------------------------------|
|--------0--------------0-------------0--------------------------------------|
         *              *             *


|-----------------------------------------------------------------|
|-----------------------------------------------------------------|
|-----------------------------------------------------------------|
|---8---------8---------8-----7---------7---------7---------------|
|---6---------6---------6-----6---------6---------6---------------|
|-----0-0-0-0---0-0-0-0---0-0---0-0-0-0---0-0-0-0---0-0-----------|
      * * * *   * * * *   * *   * * * *   * * * *   * *


Verse 1&2 Up & Down
|----------------------------------------------------------|
|----------------------------------------------------------|
|----------------------------------------------------------|
|----------------------------------------------------------|
|----0-0-0-0-0----0----0-0-0----0----0-0----0-0-0----------|
|----0-0-0-0-0----0----0-0-0----0----0-0----0-0-0----------|
     * * * * *    *    * * *    *    * *    * * *
                                                              x3

|----------------------------------------------------------|
|----------------------------------------------------------|
|----------------------------------------------------------|
|----------------------------------------------------------|
|-0---0------0--1-3----1-1--3--1---------------------------|
|-0---0------0--1-3----1-1--3--1---------------------------|
  *   *      *  * *    * *  *  *


Pre-Chorus:

|----------------------------------------------------------------------------|
|----------------------------------------------------------------------------|
|----------------------------------------------------------------------------|
|-6-5---6-5---5--5--656----6-5-8----6-5---6-5----5----5----6-5-8---6--5---3--|
|-6-5---6-5---5--5--656----6-5-8----6-5---6-5----5----5----6-5-8---6--5---3--|



Chorus:

|-----------------------------------------------------------------------------------|
|-----------------------------------------------------------------------------------|
|-----------------------------------------------------------------------------------|
|-----------------------------------------------------------------------------------|
|-5555-555-----6--5---3--1111--111-1-111---8888---888---888-------------------------|
|-5555-555-----6--5---3--1111--111-1-111---8888---888---888-------------------------|


|-----------------------------------------------------------------------------------|
|-----------------------------------------------------------------------------------|
|-----------------------------------------------------------------------------------|
|-----------------------------------------------------------------------------------|
|--0------0------0------------------------------------------------------------------|
|--0---00-0---00-0------------------------------------------------------------------|
   *   ** *   ** *


|-----------------------------------------------------------------------------------|
|-----------------------------------------------------------------------------------|
|-----------------------------------------------------------------------------------|
|-----------------------------------------------------------------------------------|
|-5555-555-----6--5---3--1111--111-1-111---8888---888---888-------------------------|
|-5555-555-----6--5---3--1111--111-1-111---8888---888---888-------------------------|


|----------------------------|
|----------------------------|
|----------------------------|
|----------------------------|
|---1010101010101010------0--|
|---1010101010101010------0--|


To Top of Page (repeat again)

Solo:


Outro:

|---------------------------------------------------------------------8-----|
|-------------------------------------------------------------------8-------|
|----------------------------------------------------------7-9-10-----------|
|---------------------------/8-7------------------8-7-----------------------|
|------------/6-5-----------------------/6-5--------------------------------|
|--------0--------------0-------------0-------------------------------------|
         *              *             *


|----------------------------------------------------------------------------|
|--------------------------------------------------------------------8-------|
|----------------------------------------------------------7-9-10-----8------|
|---------------------------/8-7------------------8-7------------------------|
|------------/6-5-----------------------/6-5---------------------------------|
|--------0--------------0-------------0--------------------------------------|
         *              *             *

|---------------------------------------------------------------------8-----|
|-------------------------------------------------------------------8-------|
|----------------------------------------------------------7-9-10-----------|
|---------------------------/8-7------------------8-7-----------------------|
|------------/6-5-----------------------/6-5--------------------------------|
|--------0--------------0-------------0-------------------------------------|
         *              *             *


|---------------------------------------------------------------------------------|
|-------------------------------------------------------------------8-------------|
|----------------------------------------------------------7-9-10----9Ph----------|
|---------------------------/8-7------------------8-7-----------------------------|
|------------/6-5-----------------------/6-5--------------------------------------|
|--------0--------------0-------------0-------------------------------------------|
         *              *             *
comments
We did not receive enough feedback on this tab! Please rate:
print report bad tab
1 2 3 4 5
1 comment total.
0 reply
KoRnn69 wrote on August 10 2011, 08:23 pm

6-5---6-5---5--5--565----6-5-8----6-5---6-5----5----5----6-5-8---6--5---3--|
|-6-5---6-5---5--5--565----6-5-8----6-5---6-5----5----5----6-5-8---6--5---3--|

I want to post or [tab]
guest
You may want to rate the tab now too:
select rating
Please do not post tabs as comments. Select "correction" instead!