Oops, an error
Loading. Please wait.

The Sound Of Silence tab

version 3
version 3

Whole song

Interactive

Video

  • How play Disturbed The sound Of Silence on acoustic guitar.
11,029 views 102 this week
no commentswrite comment
1 2 3 4 5
x 10
add to favorites
×
Save as Personal and add changes to this tab that will be seen only by you. Learn more ›
×
You can save this tab as Personal to edit and correct it or add notes. All changes will be seen only by you. Learn more »
launch autoscroll
font size
0
reset
how to read this tab
guitar tuner
edit
Autoscroll
slow
fast
+/-
esc
set tempo
stop
About this tab version
Doesnt just follow along with lyrics, plays the guitar part to the song. Was this info helpful? Yes No
Disturbed
The Sound Of Silence
Capo 2

[Intro]

e--------------------------------------------|
B--------------------------------------------|
G-----------0---------0----------0-----------|
D-------2-----2---4----------2-----2---4-----|
A-----2--------------------2-----------------|
E---0-----0-----0---0----0-----0-----0---0---|

Hello darkness, my old friend
e------------2-----0---2------------------------------------|
B--------3-----3--------------------------------------------|
G------2----------------------------------------------------|
D----0-----0-----0---0--------------------------------------|
A-----------------------------------------------------------|
E-----------------------------------------------------------|

 I've come to talk with you again
e-----------------------------------------------------------|
B-----------------------------------------------------------|
G---------------0-------------------------------------------|
D--------2-----2---4---0------------------------------------|
A----2------------------------------------------------------|
E----0-----0-----0---0--------------------------------------|

Because a vision softly creeping
e-----------------------------------------------------------|
B-----------------------------------------------------------|
G-------------------------0---------------------------------|
D-----------------------------------------------------------|
A---------------------3---3---------------------------------|
E-----------------------------3-----------------------------|

Left it's seeds while i was sleeping
e-----------------------------------------------------------|
B-----------------------------------------------------------|
G-------------0---------0-----------------------------------|
D---------2-------------------------------------------------|
A------------------3---3------------------------------------|
E-------0---0---0-------------3-----------------------------|

And the vision that was planted in my brain
e-----------------------------------------------------------|
B--------------------1--------------------------------------|
G--------------------0------------0-------------------------|
D--------2-----------2--------------0-----------------------|
A-----------------------------------------------------------|
E---------------------------------------3-------------------|

Still remains in the sound of silence
e-----------------------------------------------------------|
B--------------------------0---0---0---0--------------------|
G----------------------------2---0---4---2------------------|
D---2-0-------------0---------------------------------------|
A-------2----0-2---0----------------------------------------|
E------------------------0----------------------------------|

The guitar is the same for all 5 verses


[Outro]

e--------------------------------------------------------|
B-----0---0---0---0---0---0---0---0---0---0---0---0------|
G-------2---0-----------2---0-----------2---0------------|
A---------------4---2-----------4---2-----------4---2----|
D--------------------------------------------------------|
E---0-----------------------------------------------0----|

            
            
Suggest correction
Creating personal tab
Creating personal tab
You can edit any tab online and save it as your Personal.

You can edit, replace or remove any tab part or add personal notes – all changes will be seen only by you.

Personal tabs can be accessed anytime from any device, even offline.
Learn more »
comments
print report bad tab
guest
You may want to rate the tab now too:
select rating
Wanna post a correction for this tab? Suggest correction