Oops, an error
Loading. Please wait.

The Vengeful One tab

version 1
version 1

Whole song

Interactive

34,781 views 159 this week
2 commentsread comments
1 2 3 4 5
x 20
add to favorites
×
Save as Personal and add changes to this tab that will be seen only by you. Learn more ›
×
You can save this tab as Personal to edit and correct it or add notes. All changes will be seen only by you. Learn more »
launch autoscroll
font size
0
reset
how to read this tab
guitar tuner
edit
Autoscroll
slow
fast
+/-
esc
set tempo
stop
|--------------------------------------------------------------------------------------------------------|
|                                       DISTURBED - THE VENGEFUL ONE                                     |
|                                        Album: Immortalized (2015)                                      |
|--------------------------------------------------------------------------------------------------------|

                   If you have questions or corrections feel free to send me a message:
                                http://profile.ultimate-guitar.com/godspeedy/
                                    https://www.facebook.com/Godspeedy14
                     
                 Also check out my Youtube channel: http://www.youtube.com/user/Godspeedy14

                        *************************************************************
                        * NOTE: If you need a playthrough, check out my cover here: *
                        *       https://www.youtube.com/watch?v=aYlROfubKVU         *
                        *************************************************************

                                       Tuning: 6 strings BF#BEG#C# 
                                                    

[Intro]

I. Guitar 1 (w/ dist)

C#|------------------------|------------------------|-------------------------|-------------------------|
G#|------------------------|------------------------|-------------------------|-------------------------|
 E|------------------------|------------------------|-------------------------|-------------------------|
 B|-8--8--7--------------5-|-------10-------5-----5-|-8--8--7--------13----12-|----5--------5--7--8--10-|
F#|-0--0--0--0--0--0--0--0-|-0--0--0--0--0--0--0--0-|-0--0--0--0--0--0--0--0--|-0--0--0--0--0--0--0--0--|
 B|------------------------|------------------------|-------------------------|-------------------------|
             *  *  *  *      *  *     *  *     *               *  *     *       *     *  *        *

II. Guitars 1 and 2 (w/ dist)

C#|------------------------|------------------------|------------------------|
G#|------------------------|------------------------|------------------------|
 E|------------------------|------------------------|-8--8--8--8--8--8--8--8-|
 B|-8--8--7--------------5-|-------10-------5-----5-|-8--8--8--8--8--8--8--8-|
F#|-0--0--0--0--0--0--0--0-|-0--0--0--0--0--0--0--0-|-6--6--6--6--6--6--6--6-|
 B|------------------------|------------------------|------------------------|
             *  *  *  *      *  *     *  *     *  

III. Guitar 1 (w/ dist and wah-wah)

C#|----------------------------|
G#|----------------------------|
 E|----------------------------|
 B|----------------------------|
F#|----------------------------|
 B|----10--10--10--10--5--5--5-|

IV. Guitars 1 and 2 (w/ dist)

C#|------------------------|------------------------|-------------------------|-------------------------|
G#|------------------------|------------------------|-------------------------|-------------------------|
 E|------------------------|------------------------|-------------------------|-------------------------|
 B|-8--8--7--------------5-|-------10-------5-----5-|-8--8--7--------13----12-|----5--------5--7--8--10-|
F#|-0--0--0--0--0--0--0--0-|-0--0--0--0--0--0--0--0-|-0--0--0--0--0--0--0--0--|-0--0--0--0--0--0--0--0--|
 B|------------------------|------------------------|-------------------------|-------------------------|
             *  *  *  *      *  *     *  *     *               *  *     *       *     *  *        *
C#|------------------------|------------------------|------------------------|--------------------------|
G#|------------------------|------------------------|------------------------|--------------------------|
 E|------------------------|------------------------|-8--8--8--8--8--8--8--8-|--------------------------|
 B|-8--8--7--------------5-|-------10-------5-----5-|-8--8--8--8--8--8--8--8-|--10--10--10--10--5--5--5-|
F#|-0--0--0--0--0--0--0--0-|-0--0--0--0--0--0--0--0-|-6--6--6--6--6--6--6--6-|--10--10--10--10--5--5--5-|
 B|------------------------|------------------------|------------------------|--10--10--10--10--5--5--5-|
             *  *  *  *      *  *     *  *     *  


[Verse]

Guitars 1 and 2 (w/ dist)

C#|------------------------|------------------------|-------------------------|-------------------------|
G#|------------------------|------------------------|-------------------------|-------------------------|
 E|------------------------|------------------------|-------------------------|-------------------------|
 B|-8--8--7--------------5-|-------10-------5-----5-|-8--8--7--------13----12-|----5--------5--7--8--10-|
F#|-0--0--0--0--0--0--0--0-|-0--0--0--0--0--0--0--0-|-0--0--0--0--0--0--0--0--|-0--0--0--0--0--0--0--0--|
 B|------------------------|------------------------|-------------------------|-------------------------|
             *  *  *  *      *  *     *  *     *               *  *     *       *     *  *        *      x2
C#|------------------------|------------------------|------------------------|--------------------------|
G#|------------------------|------------------------|------------------------|--------------------------|
 E|------------------------|------------------------|-8--8--8--8--8--8--8--8-|--------------------------|
 B|-8--8--7--------------5-|-------10-------5-----5-|-8--8--8--8--8--8--8--8-|--10--10--10--10--5--5--5-|
F#|-0--0--0--0--0--0--0--0-|-0--0--0--0--0--0--0--0-|-6--6--6--6--6--6--6--6-|--10--10--10--10--5--5--5-|
 B|------------------------|------------------------|------------------------|--10--10--10--10--5--5--5-|
             *  *  *  *      *  *     *  *     *  
                                     

[Pre-Chorus]

I. Guitar 1 (w/ clean and delay)

   ...................................................................
C#|-------------|--------|-------------|--------|-------------|--------|
G#|-------------|--------|-------0-----|--------|-------5-----|--------|
 E|-------5-----|--------|-------------|--------|-------------|--------|
 B|-------------|--------|-------------|--------|-------------|--------|
F#|-0-----------|--------|-2-----------|--------|-3-----------|--------|
 B|-------------|--------|-------------|--------|-------------|--------|

II. Guitars 1 and 2 (w/ dist)

C#|----------------------|----------------------|
G#|----------------------|----------------------|
 E|----------------------|--------------------7-|
 B|-10--7---7---7--10--7-|--7---7--10--7--10----|
F#|----------------------|----------------------|
 B|----------------------|----------------------|


[Chorus]

Guitars 1 and 2 (w/ dist)

C#|--------------|------------------|     |------------------------|------------------|
G#|--------------|------------------|     |------------------------|------------------|
 E|--------------|------------------| x3  |------------------------|------------------|
 B|-8----5----7--|--7--7---7---7--7-|     |-8--10---10---10--8--10-|--5---5--5--8---8-|
F#|-8----5----7--|--7--7---7---7--7-|     |-8--10---10---10--8--10-|--5---5--5--8---8-|
 B|-8----5----7--|--7--7---7---7--7-|     |-8--10---10---10--8--10-|--5---5--5--8---8-|
                                            *                *               *
C#|--------------|------------------|----------------------|------------------|
G#|--------------|------------------|----------------------|------------------|
 E|--------------|------------------|----------------------|------------------|
 B|-8----5----7--|--7--7---7---7--7-|-------------------7--|--7--7---7---7--7-|
F#|-8----5----7--|--7--7---7---7--7-|-8--8--8--5--5--5--7--|--7--7---7---7--7-|
 B|-8----5----7--|--7--7---7---7--7-|-8--8--8--5--5--5--7--|--7--7---7---7--7-|
                                      *  *  *  *  *  *
C#|--------------|------------------|------------------------|------------------|
G#|--------------|------------------|------------------------|------------------|
 E|--------------|------------------|------------------------|------------------|
 B|-8----5----7--|--7--7---7---7--7-|-8--10---10---10--8--10-|--5---5--5--8---8-|
F#|-8----5----7--|--7--7---7---7--7-|-8--10---10---10--8--10-|--5---5--5--8---8-|
 B|-8----5----7--|--7--7---7---7--7-|-8--10---10---10--8--10-|--5---5--5--8---8-|
                                      *                *               *

C#|------------------------|------------------------|-------------------------|-------------------------|
G#|------------------------|------------------------|-------------------------|-------------------------|
 E|------------------------|------------------------|-------------------------|-------------------------|
 B|-8--8--7--------------5-|-------10-------5-----5-|-8--8--7--------13----12-|----5--------5--7--8--10-|
F#|-0--0--0--0--0--0--0--0-|-0--0--0--0--0--0--0--0-|-0--0--0--0--0--0--0--0--|-0--0--0--0--0--0--0--0--|
 B|------------------------|------------------------|-------------------------|-------------------------|
             *  *  *  *      *  *     *  *     *               *  *     *       *     *  *        *
C#|------------------------|------------------------|------------------------|--------------------------|
G#|------------------------|------------------------|------------------------|--------------------------|
 E|------------------------|------------------------|-8--8--8--8--8--8--8--8-|--------------------------|
 B|-8--8--7--------------5-|-------10-------5-----5-|-8--8--8--8--8--8--8--8-|--10--10--10--10--5--5--5-|
F#|-0--0--0--0--0--0--0--0-|-0--0--0--0--0--0--0--0-|-6--6--6--6--6--6--6--6-|--10--10--10--10--5--5--5-|
 B|------------------------|------------------------|------------------------|--10--10--10--10--5--5--5-|
             *  *  *  *      *  *     *  *     *  

[Verse 2]
(01:47-02:10)
(same as Verse)


[Pre-Chorus 2] 
(02:10-02:21)
(same as Pre-Chorus)      
        
                                   
[Chorus 2] 
(02:21-02:44)
(same as Chorus)

Guitars 1 and 2 (w/ dist)

C#|--------------|------------------|     |------------------------|------------------|
G#|--------------|------------------|     |------------------------|------------------|
 E|--------------|------------------| x3  |------------------------|------------------|
 B|-8----5----7--|--7--7---7---7--7-|     |-8--10---10---10--8--10-|--5---5--5--8---8-|
F#|-8----5----7--|--7--7---7---7--7-|     |-8--10---10---10--8--10-|--5---5--5--8---8-|
 B|-8----5----7--|--7--7---7---7--7-|     |-8--10---10---10--8--10-|--5---5--5--8---8-|
                                            *                *               *
C#|--------------|------------------|----------------------|------------------|
G#|--------------|------------------|----------------------|------------------|
 E|--------------|------------------|----------------------|------------------|
 B|-8----5----7--|--7--7---7---7--7-|-------------------7--|--7--7---7---7--7-|
F#|-8----5----7--|--7--7---7---7--7-|-8--8--8--5--5--5--7--|--7--7---7---7--7-|
 B|-8----5----7--|--7--7---7---7--7-|-8--8--8--5--5--5--7--|--7--7---7---7--7-|
                                      *  *  *  *  *  *
C#|--------------|------------------|------------------------|------------------|
G#|--------------|------------------|------------------------|------------------|
 E|--------------|------------------|------------------------|------------------|
 B|-8----5----7--|--7--7---7---7--7-|-8--10---10---10--8--10-|--5---5--5--8---8-|
F#|-8----5----7--|--7--7---7---7--7-|-8--10---10---10--8--10-|--5---5--5--8---8-|
 B|-8----5----7--|--7--7---7---7--7-|-8--10---10---10--8--10-|--5---5--5--8---8-|
                                      *                *               *


[Bridge]

I. Guitars 1 and 2 (w/ dist)

C#|------------------------|------------------------|------------------------|------------------------|
G#|------------------------|------------------------|------------------------|------------------------|
 E|------------------------|------------------------|------------------------|------------------------|
 B|------------------------|------------------------|------------------------|------------------------|
F#|------------------------|------------------------|-0--0--------------0----|-0----------------------|
 B|------------------------|------------------------|-0--0--------------0----|-0----------------------|
                                                      *  *              *      * 
   
   Guitar 3 (w/ dist and wah-wah)
 
C#|------------------------|------------------------|------------------------|------------------------|
G#|------------------------|------------------------|------------------------|------------------------|
 E|------------------------|------------------------|------------------------|------------------------|
 B|------------------------|------------------------|------------------------|------------------------|
F#|-------------------5----|-------------------6----|-------------5----------|-3-h5--3-p0--3-p0-------|
 B|-3-p0--0--0--5-h6-----0-|-0--0--0--0--5-h6-----0-|-0--0--5-h6----h6--0--0-|-------------------3-p0-|
          *  *           *   *  *  *  *           *   *  *              *  * 

II. Guitars 1 and 2 (w/ dist)
 
C#|------------------------|------------------------|---------------------------|-------------------|
G#|------------------------|------------------------|---------------------------|-------------------|
 E|------------------------|------------------------|---------------------------|-------------------|
 B|------------------------|------------------------|---------------------------|-------------------|
F#|-------------------5----|-------------6-p5-------|---------------------------|-------------------|
 B|-3-p0--0--0--5-h6-----0-|-0--0--5-h6--------8-p5-|-6--6--6--10--10--10--9--9-|-9--5--5--5--------|


C#|------------------------|------------------------|------------------------|------------------------|
G#|------------------------|------------------------|------------------------|------------------------|
 E|------------------------|------------------------|------------------------|------------------------|
 B|------------------------|------------------------|------------------------|------------------------|
F#|-------------------5----|-------------------6----|-------------5----------|-3-h5--3-p0--3-p0-------|
 B|-3-p0--0--0--5-h6-----0-|-0--0--0--0--5-h6-----0-|-0--0--5-p6----h6--0--0-|-------------------3-p0-|
          *  *           *   *  *  *  *           *   *  *              *  *   

C#|------------------------|------------------------|
G#|------------------------|------------------------|
 E|------------------------|------------------------|
 B|------------------------|------------------------|
F#|-------------------5----|-------------6-p5-------|
 B|-3-p0--0--0--5-h6-----0-|-0--0--5-h6--------8-p5-|
          *  *           *   *  * 
C#|---------------------------------------|------------------------------|
G#|---------------------------------------|------------------------------|
 E|---------------------------------------|------------------------------|
 B|---------------------------------------|------------------------------|
F#|---------------------------------------|----------------------`5``5`--|
 B|-6-6-6-6-6-6-10-10-10-10-10-10-9-9-9-9-|-9-9-5-5-5-5-5-5-6--0---------|
                                                               *

C#|------------------------|------------------------|------------------------|------------------------|
G#|------------------------|------------------------|------------------------|------------------------|
 E|------------------------|------------------------|------------------------|------------------------|
 B|------------------------|------------------------|------------------------|------------------------|
F#|-------------------5----|-------------------6----|-------------5----------|-3-h5--3-p0--3-p0-------|
 B|-3-p0--0--0--5-h6-----0-|-0--0--0--0--5-h6-----0-|-0--0--5-h6----h6--0--0-|-------------------3-p0-|

C#|------------------------|------------------------|------------------------|--------------------|
G#|------------------------|------------------------|------------------------|--------------------|
 E|------------------------|------------------------|------------------------|--------------------|
 B|------------------------|------------------------|-8--10---10---10--8--10-|--5---5--5---3---0--|
F#|-------------------5----|-------------6-p5-------|-8--10---10---10--8--10-|--5---5--5---3---0--|
 B|-3-p0--0--0--5-p6-----0-|-0--0--5-p6--------8-p5-|-8--10---10---10--8--10-|--5---5--5---3---0--|
                                                                                       *   *   *

C#|------------------------|----------------|
G#|------------------------|----------------|
 E|------------------------|----------------|
 B|-8--10---10---10--8--10-|--5---5--8------|
F#|-8--10---10---10--8--10-|--5---5--8------|
 B|-8--10---10---10--8--10-|--5---5--8------|
                                     

[Chorus 3]

Guitars 1 and 2 (w/ dist)

C#|--------------|------------------|
G#|--------------|------------------|
 E|--------------|------------------|
 B|-----------7--|--7--7---7---7--7-|
F#|-----------7--|--7--7---7---7--7-|
 B|-----------7--|--7--7---7---7--7-|
               
C#|--------------|------------------|     |------------------------|------------------|
G#|--------------|------------------|     |------------------------|------------------|
 E|--------------|------------------| x2  |------------------------|------------------|
 B|-8----5----7--|--7--7---7---7--7-|     |-8--10---10---10--8--10-|--5---5--5--8---8-|
F#|-8----5----7--|--7--7---7---7--7-|     |-8--10---10---10--8--10-|--5---5--5--8---8-|
 B|-8----5----7--|--7--7---7---7--7-|     |-8--10---10---10--8--10-|--5---5--5--8---8-|
                                            *                *               *  

C#|-----------------------------------------|------------------------|
G#|-----------------------------------------|------------------------|
 E|-15-15-15-15-15-15-12-12-12-12-12-12-14--|--14--14---14---14--14--|
 B|--x--x--x--x--x--x--x--x--x--x--x--x--x--|---x---x----x----x---x--|
F#|-13-13-13-13-13-13-10-10-10-10-10-10-12--|--12--12---12---12--12--|
 B|-----------------------------------------|------------------------|   
      
C#|----------------------|------------------|
G#|----------------------|------------------|
 E|----------------------|------------------|
 B|-------------------7--|--7--7---7---7--7-|
F#|-8--8--8--5--5--5--7--|--7--7---7---7--7-|
 B|-8--8--8--5--5--5--7--|--7--7---7---7--7-|
    *  *  *  *  *  *

C#|--------------|------------------|------------------------|------------------|
G#|--------------|------------------|------------------------|------------------|
 E|--------------|------------------|------------------------|------------------|
 B|-8----5----7--|--7--7---7---7--7-|-8--10---10---10--8--10-|--5---5--5--8---8-|
F#|-8----5----7--|--7--7---7---7--7-|-8--10---10---10--8--10-|--5---5--5--8---8-|
 B|-8----5----7--|--7--7---7---7--7-|-8--10---10---10--8--10-|--5---5--5--8---8-|
                                      *                *               *               
C#|--------------|------------------|     |------------------------|------------------|
G#|--------------|------------------|     |------------------------|------------------|
 E|--------------|------------------| x3  |------------------------|------------------|
 B|-8----5----7--|--7--7---7---7--7-|     |-8--10---10---10--8--10-|--5---5--5--8---8-|
F#|-8----5----7--|--7--7---7---7--7-|     |-8--10---10---10--8--10-|--5---5--5--8---8-|
 B|-8----5----7--|--7--7---7---7--7-|     |-8--10---10---10--8--10-|--5---5--5--8---8-|
                                            *                *               *
C#|--------------|------------------|----------------------|------------------|
G#|--------------|------------------|----------------------|------------------|
 E|--------------|------------------|----------------------|------------------|
 B|-8----5----7--|--7--7---7---7--7-|-------------------7--|--7--7---7---7--7-|
F#|-8----5----7--|--7--7---7---7--7-|-8--8--8--5--5--5--7--|--7--7---7---7--7-|
 B|-8----5----7--|--7--7---7---7--7-|-8--8--8--5--5--5--7--|--7--7---7---7--7-|
                                      *  *  *  *  *  *
C#|--------------|------------------|------------------------|------------------|
G#|--------------|------------------|------------------------|------------------|
 E|--------------|------------------|------------------------|------------------|
 B|-8----5----7--|--7--7---7---7--7-|-8--10---10---10--8--10-|--5---5--5--8---8-|
F#|-8----5----7--|--7--7---7---7--7-|-8--10---10---10--8--10-|--5---5--5--8---8-|
 B|-8----5----7--|--7--7---7---7--7-|-8--10---10---10--8--10-|--5---5--5--8---8-|
                                      *                *               *
C#|------------------------|----------------|
G#|------------------------|----------------|
 E|------------------------|----------------|
 B|-8--10---10---10--8--10-|--5---5--8------|
F#|-8--10---10---10--8--10-|--5---5--8------|
 B|-8--10---10---10--8--10-|--5---5--8------|
    *                *    


[Outro]

Guitars 1 and 2 (w/ dist)

C#|------------------------|------------------------|
G#|------------------------|------------------------|
 E|------------------------|------------------------| x3
 B|-8--8--7--------------5-|-------10-------5-----5-| 
F#|-0--0--0--0--0--0--0--0-|-0--0--0--0--0--0--0--0-|
 B|------------------------|------------------------|
             *  *  *  *      *  *     *  *     *
C#|------------------------|------------------------|
G#|------------------------|------------------------|
 E|------------------------|------------------------|
 B|-8--8--7----------------|------------------------|
F#|-0--0--0----------------|------------------------|
 B|------------------------|------------------------|

************************************
                                                                                                       
| *   palm mute                                                  
| h   hammer-on                                                  
| p   pull-off                                                   
| x   Mute note                                                  
| ..  let ring                                                 
| ``  Natural harmonics                                         
                                                                                                        
************************************
Suggest correction
Creating personal tab
Creating personal tab
You can edit any tab online and save it as your Personal.

You can edit, replace or remove any tab part or add personal notes – all changes will be seen only by you.

Personal tabs can be accessed anytime from any device, even offline.
Learn more »
comments
print report bad tab
2 comments total.
+4 reply
JimBonJovi 830 Jun 24, 2015 08:11 AM

Wicked tab my friend. Glad to see Dan Donegan trying out Drop B tuning for the new record.

guest
You may want to rate the tab now too:
select rating
Wanna post a correction for this tab? Suggest correction