Oops, an error
Loading. Please wait.

Torn Tab

version 1
version 1

Whole song

Interactive

8,629 views 6 this week
1 commentread comment
1 2 3 4 5
accurate
x 4
add to favorites
launch autoscroll
font size
0
reset
how to read this tab
guitar tuner
Autoscroll
slow
fast
+/-
esc
set tempo
stop
Help us to improve Ultimate-Guitar.com Take our survey!
×
Author
Difficulty
Tuning
intermediate
C G C F A D
This is Torn by Disturbed

I know alot of people have been waiting for this song so i thought i'd 
take a shot at it.  There are some minor flaws in this tab, but
its good for the most part.  Please leave comments/corrections.

Enjoy!

Tuning: Drop C (C G C F A D)

Intro/Verse 1:

D|---------------------------------------------------|
A|---------------------------------------------------|
F|---------------------------------------------------|
C|--5-3-5-3-5-6-3-5-3-3-5-6--5-3-5-3-5-6-3-5-3-3-8-6-|
G|--5-3-5-3-5-6-3-5-3-3-5-6--5-3-5-3-5-6-3-5-3-3-8-6-|
C|--5-3-5-3-5-6-3-5-3-3-5-6--5-3-5-3-5-6-3-5-3-3-8-6-|

Verse 2:

D|---------------------------------------------------|
A|---------------------------------------------------|
F|---------------------------------------------------|
C|---------------------------------------------------|
G|---------------------------------------------------|
C|--5-3-5-3-5-6-3-5-3-3-5-6--5-3-5-3-5-6-3-5-3-3-8-6-|
PM  . . . . . . . . . . . .  . . . . . . . . . . . .

Chorus: You can figure out the number of strums

D|---------------------------------------------------|
A|---------------------------------------------------|
F|--13-13-13-12-12-12---7-7-8-8----------------------|
C|--10-10-10-10-10-10---7-7-8-8---6-6-6--6-6-6-------|
G|--10-10-10-10-10-10---5-5-6-6---6-6-6--6-6-6-------|
C|--10-10-10-10-10-10-------------6-6-6--6-6-6-------|

   |Gradual Release  |
D|---------------------------------------------------|
A|---------------------------------------------------|
F|---------------------------------------------------|
C|-3-3-3-3-3-3-3-3-3-3----5-5-5-5-5------------------|
G|-3-3-3-3-3-3-3-3-3-3----5-5-5-5-5------------------|
C|-3-3-3-3-3-3-3-3-3-3----5-5-5-5-5------------------|
PM . . . . . . . . . .

D|----------------------------------------------------|
A|----------------------------------------------------|
F|--5-5-5-5----------------5-5-5----------------------|
C|--5-5-5-5--1-1-1-3-3-3---5-5-5--1-1-1-3-3-3--3-3-3--|
G|--3-3-3-3--1-1-1-3-3-3---3-3-3--1-1-1-3-3-3--3-3-3--|
C|-----------1-1-1-3-3-3----------1-1-1-3-3-3--3-3-3--|
PM                                             . . .

D|----------------------------------------------------|
A|----------------------------------------------------|
F|--5-5-5-5-------------------------------------------|
C|--5-5-5-5--1-1-1-1-1-3-6-6-6-6---3-3-3---3-3-3------|
G|--3-3-3-3--1-1-1-1-1-3-6-6-6-6---3-3-3---3-3-3------|
C|-----------1-1-1-1-1-3-6-6-6-6---3-3-3---3-3-3------|

Repeat Verse 2 once

Verse 3:
D|---------------------------|
A|---------------------------|
F|---------------------------|
C|--5-5---5--5-5---5-5-------|
G|--5-5---5--5-5---5-5-------|
C|--5-5---5--5-5---5-5-------|

Verse 3 Background:
D|---------------------------|
A|---------------------------|
F|---------------------------|
C|--5-3-5-3-5-6-3-5-3-3-5-6--|
G|---------------------------|
C|---------------------------|


Bridge/Solo: 'b' means bend the string
             'r' means release the string
             'v' means vibrato

Use a wah effect

D|------------------------------------|
A|------------------------------------|
F|--7-7-7-6-6-6-7-7-7-6-6-6-7-7-7-7---|
C|--5-5-5-5-5-5-5-5-5-5-5-5-5-5-5-5---|
G|--5-5-5-5-5-5-5-5-5-5-5-5-5-5-5-5---|
C|--5-5-5-5-5-5-5-5-5-5-5-5-5-5-5-5---|

D|----------------------------------------------|
A|----------------------------------------------|
F|--10-10-10-9-9-9-10-10-10-9-9-9-10-10-10-10---|
C|--8--8--8--8-8-8-8--8--8--8-8-8-8--8--8--8----|
G|--8--8--8--8-8-8-8--8--8--8-8-8-8--8--8--8----|
C|--8--8--8--8-8-8-8--8--8--8-8-8-8--8--8--8----|

                   |    Repeat x 4  |
D|-----------------|-------10h12p10-|------------|
A|--18b20~-18v-18/-|-13b14----------|--13-11-10--|
F|-----------------|----------------|------------|
C|-----------------|----------------|------------|
G|-----------------|----------------|------------|
C|-----------------|----------------|------------|


D|------------------------------------|
A|------------------------------------|
F|--7-7-7-6-6-6-7-7-7-6-6-6-7-7-7-7---|
C|--5-5-5-5-5-5-5-5-5-5-5-5-5-5-5-5---|
G|--5-5-5-5-5-5-5-5-5-5-5-5-5-5-5-5---|
C|--5-5-5-5-5-5-5-5-5-5-5-5-5-5-5-5---|

   Not too sure about this measure             Repeat x4
D|--8/10-12-12b13r12--8-10-8-----------------|-----------|
A|---------------------------10-0-*10--------|-------15--|
F|-------------------------------------------|-17b18-----|
C|-------------------------------------10/12-|-----------|
G|-------------------------------------------|-----------|
C|-------------------------------------------|-----------|
PH                                 .

D|----------------------------------------------|
A|----------------------------------------------|
F|--10-10-10-9-9-9-10-10-10-9-9-9-10-10-10-10---|
C|--8--8--8--8-8-8-8--8--8--8-8-8-8--8--8--8----|
G|--8--8--8--8-8-8-8--8--8--8-8-8-8--8--8--8----|
C|--8--8--8--8-8-8-8--8--8--8-8-8-8--8--8--8----|


D|--22-17---------17-14-------------13b15-13v-----15-17-18b20-18v~-|
A|--------18-15---------15----13-15------------15------------------|
F|-------------------------14--------------------------------------|
C|-----------------------------------------------------------------|
G|-----------------------------------------------------------------|
C|-----------------------------------------------------------------|

D|------------------------------------|
A|------------------------------------|
F|--7-7-7-6-6-6-7-7-7-6-6-6-7-7-7-7---|
C|--5-5-5-5-5-5-5-5-5-5-5-5-5-5-5-5---|
G|--5-5-5-5-5-5-5-5-5-5-5-5-5-5-5-5---|
C|--5-5-5-5-5-5-5-5-5-5-5-5-5-5-5-5---|

                Repeat x5
D|---8p5----|-8p5-6p5-----|------3-----3------------------|
A|------6p5-|---------6p5-|--6b7---6b7---6b7---3-3-3-6-3--|
F|----------|-------------|-------------------------------|
C|----------|-------------|-------------------------------|
G|----------|-------------|-------------------------------|
C|----------|-------------|-------------------------------|

D|----------------------------------------------|
A|----------------------------------------------|
F|--10-10-10-9-9-9-10-10-10-9-9-9-10-10-10-10---|
C|--8--8--8--8-8-8-8--8--8--8-8-8-8--8--8--8----|
G|--8--8--8--8-8-8-8--8--8--8-8-8-8--8--8--8----|
C|--8--8--8--8-8-8-8--8--8--8-8-8-8--8--8--8----|

D|--6p5p3h6p5p3h6p5p3h6p5p3h6p5p3h6p5p3--8p3h6h8p3h6h8p3h8p3h6h8p3h6-|
A|-------------------------------------------------------------------|
F|-------------------------------------------------------------------|
C|-------------------------------------------------------------------|
G|-------------------------------------------------------------------|
C|-------------------------------------------------------------------|

D|-13p8h10h13p8h10h13p8h13p8h10h13p8h10--17p10h13h17p10h13h17p10h17p10h13h17p10h13-|
A|---------------------------------------------------------------------------------|
F|---------------------------------------------------------------------------------|
C|---------------------------------------------------------------------------------|
G|---------------------------------------------------------------------------------|
C|---------------------------------------------------------------------------------|


D|-10/15~--------------------------------------------------------------------------|
A|---------------------------------------------------------------------------------|
F|---------------------------------------------------------------------------------|
C|---------------------------------------------------------------------------------|
G|---------------------------------------------------------------------------------|
C|---------------------------------------------------------------------------------|

Outro:
D|---------------------------|
A|---------------------------|
F|---------------------------|
C|--5-3-5-3-5-6-3-5-3-3-5-6--|
G|--5-3-5-3-5-6-3-5-3-3-5-6--|
C|--5-3-5-3-5-6-3-5-3-3-5-6--|


Suggest correction
comments
print report bad tab
1 comment total.
0 reply
eatorl 10 wrote on August 20 2008, 08:25 pm

good tab, but i get loose in the chorus.... 4 stars...

guest
You may want to rate the tab now too:
select rating
Wanna post a correction for this tab? Suggest correction