Oops, an error
Loading. Please wait.

Voices Tab

version 3
version 3
5,450 views 3 this week
no commentswrite comment
1 2 3 4 5
accurate
x 6
add to favorites
launch autoscroll
font size
0
reset
how to read this tab
guitar tuner
Tab Pro tools
  • play this tab
  • loop segment
  • change instrument
  • show fretboard
  • metronome
Autoscroll
slow
fast
+/-
esc
set tempo
stop
Contributor
Difficulty
Tuning
intermediate
C# G# C# F# A# D#
Gtr I (C# G# C# F# A# D#) - 'Guitar w/Flanger'
Gtr II (C# G# C# F# A# D#) - 'Guitar w/dist LC'
Gtr III (C# G# C# F# A# D#) - 'Guitar w/dist RC'


 Intro
  Moderately Q=108
  B5
 4/4
  Gtrs II, III
   S  S S S S S S S S S S S S S S S    S  S S S S S S S S S S S  S S S S
   |  | | | | | | | | | | | | | | |    |  | | | | | | | | | | |  | | | |
   /  / / / / / / / / / / / / / / /    /  / / / / / / / / / / /  / / / /

  Gtr I
   H.                       Q          H.                        Q
|-----------------------------------|------------------------------------|
|-----------------------------------|------------------------------------|
|-----------------------------------|------------------------------------|
|-11------------------------9-------|-11-------------------------9-------|
|--9------------------------9-------|-10------------------------10-------|
|--9------------------------9-------|--9-------------------------9-------|


   S  S S S S S S S S S S S S S S S    S  S S S S S S S S S S S  S S S S
   |  | | | | | | | | | | | | | | |    |  | | | | | | | | | | |  | | | |
   /  / / / / / / / / / / / / / / /    /  / / / / / / / / / / /  / / / /

   H.                       Q          H.                        Q
|-----------------------------------|-------------------------------------|
|-----------------------------------|-------------------------------------|
|-----------------------------------|-------------------------------------|
|-11------------------------9-------|-11-------------------------9--------|
|--9------------------------9-------|-10------------------------10--------|
|--9------------------------9-------|--9-------------------------9--------|


   S  S S S S S S S S S S S S S S S    S  S S S S S S S S S S S  S S S S
   |  | | | | | | | | | | | | | | |    |  | | | | | | | | | | |  | | | |
   /  / / / / / / / / / / / / / / /    /  / / / / / / / / / / /  / / / /

   H.                       Q          H.                        Q
|-----------------------------------|------------------------------------|
|-----------------------------------|------------------------------------|
|-----------------------------------|------------------------------------|
|-11------------------------9-------|-11-------------------------9-------|
|--9------------------------9-------|-10------------------------10-------|
|--9------------------------9-------|--9-------------------------9-------|


   S  S S S S S S S S S S S S S S S    S  S S S S S S S S S S S  S S S S
   |  | | | | | | | | | | | | | | |    |  | | | | | | | | | | |  | | | |
   /  / / / / / / / / / / / / / / /    /  / / / / / / / / / / /  / / / /

   H.                       Q          H.                        Q
|-----------------------------------|---------------------------------------||
|-----------------------------------|---------------------------------------||
|-----------------------------------|---------------------------------------||
|-11------------------------9-------|-11-------------------------9----------||
|--9------------------------9-------|-10------------------------10----------||
|--9------------------------9-------|--9-------------------------9----------||


 Pre-Verse
  A5B5A5B5A5B5    A5B5F5   A5B5A5B5A5B5    A5B5F5    A5B5A5B5A5B5    A5B5F5
  Gtrs II, III
  S E S E S S +S  S E Q    S E S E S S +S  S E  Q    S E S E S S +S  S E Q
|------------------------|-------------------------|-------------------------|
|------------------------|-------------------------|-------------------------|
|------------------------|---------------------10--|-------------------------|
|-7h9-7h9-7h9-(9)-7h9-3--|-7h9-7h9-7h9-(9)-7h9-10--|-7h9-7h9-7h9-(9)-7h9-3---|
|-7h9-7h9-7h9-(9)-7h9-3--|-7h9-7h9-7h9-(9)-7h9--8--|-7h9-7h9-7h9-(9)-7h9-3---|
|-7h9-7h9-7h9-(9)-7h9-3--|-7h9-7h9-7h9-(9)-7h9-----|-7h9-7h9-7h9-(9)-7h9-3---|


  A5B5A5B5A5B5    A5B5N.C.
  S E S E S S +S  S E S S S S
|-----------------------------|
|-----------------------------|
|-----------------------------|
|-7h9-7h9-7h9-(9)-7h9---------|
|-7h9-7h9-7h9-(9)-7h9-x-x-x-x-|
|-7h9-7h9-7h9-(9)-7h9-x-x-x-x-|


  A5B5A5B5A5B5    A5B5F5   A5B5A5B5A5B5    A5B5F5
  S E S E S S +S  S E Q    S E S E S S +S  S E  Q
|------------------------|--------------------------|
|------------------------|--------------------------|
|------------------------|---------------------10---|
|-7h9-7h9-7h9-(9)-7h9-3--|-7h9-7h9-7h9-(9)-7h9-10---|
|-7h9-7h9-7h9-(9)-7h9-3--|-7h9-7h9-7h9-(9)-7h9--8---|
|-7h9-7h9-7h9-(9)-7h9-3--|-7h9-7h9-7h9-(9)-7h9------|


  A5B5A5B5A5B5    A5B5F5   A5B5A5B5A5B5    A5B5D5
                                               PM--|
  S E S E S S +S  S E Q    S E S E S S +S  S E S S E
|------------------------|---------------------------||
|------------------------|---------------------------||
|------------------------|---------------------------||
|-7h9-7h9-7h9-(9)-7h9-3--|-7h9-7h9-7h9-(9)-7h9-------||
|-7h9-7h9-7h9-(9)-7h9-3--|-7h9-7h9-7h9-(9)-7h9-0-0-0-||
|-7h9-7h9-7h9-(9)-7h9-3--|-7h9-7h9-7h9-(9)-7h9-0-0-0-||


 Verse
  N.C.
  S E S E S S +S  S E Q    S E S E S S +S  S E  Q    S E S E S S +S  S E Q
|------------------------|-------------------------|-------------------------|
|------------------------|-------------------------|-------------------------|
|------------------------|-------------------------|-------------------------|
|------------------------|-------------------------|-------------------------|
|------------------------|---------------------/8--|-------------------------|
|-7h9-7h9-7h9-(9)-7h9-3--|-7h9-7h9-7h9-(9)-7h9-----|-7h9-7h9-7h9-(9)-7h9-3---|


  S E S E S S +S  S E S  S   S   S
|-----------------------------------|
|-----------------------------------|
|-----------------------------------|
|-------------------------------<5>-|
|---------------------------<5>-----|
|-7h9-7h9-7h9-(9)-7h9-x-<5>---------|


  A5B5A5B5A5B5    A5B5F5   A5B5A5B5A5B5    A5B5F5
  S E S E S S +S  S E Q    S E S E S S +S  S E  Q
|------------------------|--------------------------|
|------------------------|--------------------------|
|------------------------|--------------------------|
|------------------------|---------------------10---|
|-7h9-7h9-7h9-(9)-7h9-3--|-7h9-7h9-7h9-(9)-7h9--8---|
|-7h9-7h9-7h9-(9)-7h9-3--|-7h9-7h9-7h9-(9)-7h9------|


  A5B5A5B5A5B5    A5B5F5   A5B5A5B5A5B5    A5B5N.C.
  S E S E S S +S  S E Q    S E S E S S +S  S E S S S S
|------------------------|-----------------------------||
|------------------------|-----------------------------||
|------------------------|-----------------------------||
|------------------------|-----------------------------||
|-7h9-7h9-7h9-(9)-7h9-3--|-7h9-7h9-7h9-(9)-7h9-x-x-x-x-||
|-7h9-7h9-7h9-(9)-7h9-3--|-7h9-7h9-7h9-(9)-7h9-x-x-x-x-||


 Chorus
  D5      F#5  B5         D5      F#5  B5
  H.      Q    W          H.      Q    W
|------------|----------|------------|------|
|------------|----------|------------|------|
|------------|-4--------|------------|-4----|
|-0-------4--|-4--------|-0-------4--|-4----|
|-0-------4--|-2--------|-0-------4--|-2----|
|-0-------4--|----------|-0-------4--|------|


                                       Interlude
  D5      F#5  B5         D5      F#5   F#/B     B5
                                        Gtrs I, II
                                         <
  H.      Q    W          H.      Q      H.      Q
|------------|----------|------------||--------------|
|------------|----------|------------||--------------|
|------------|-4--------|------------||--------------|
|-0-------4--|-4--------|-0-------4--||-11-------9---|
|-0-------4--|-2--------|-0-------4--||--9-------9---|
|-0-------4--|----------|-0-------4--||--9-------9---|


  B+sus2   G/B   F#/B     B5   B+sus2   G/B
   H.       Q     H.      Q     H.       Q
|--------------|-------------|--------------||
|--------------|-------------|--------------||
|--------------|-------------|--------------||
|-11--------9--|-11-------9--|-11--------9--||
|-10-------10--|--9-------9--|-10-------10--||
|--9--------9--|--9-------9--|--9--------9--||


 Verse
  N.C.
  Gtrs II, III
  S E S E S S +S  S E Q    S E S E S S +S  S E  Q    S E S E S S +S  S E Q
|------------------------|-------------------------|-------------------------|
|------------------------|-------------------------|-------------------------|
|------------------------|-------------------------|-------------------------|
|------------------------|-------------------------|-------------------------|
|------------------------|---------------------/8--|-------------------------|
|-7h9-7h9-7h9-(9)-7h9-3--|-7h9-7h9-7h9-(9)-7h9-----|-7h9-7h9-7h9-(9)-7h9-3---|


                         PM-----|
  S E S E S S +S  S E S  S   S   S
|-----------------------------------|
|-----------------------------------|
|-----------------------------------|
|-----------------------------------|
|-------------------------------<5>-|
|-7h9-7h9-7h9-(9)-7h9-x-<5>-<5>-----|


  A5B5A5B5A5B5    A5B5F5   A5B5A5B5A5B5    A5B5F5
  S E S E S S +S  S E Q    S E S E S S +S  S E  Q
|------------------------|--------------------------|
|------------------------|--------------------------|
|------------------------|--------------------------|
|------------------------|---------------------10---|
|-7h9-7h9-7h9-(9)-7h9-3--|-7h9-7h9-7h9-(9)-7h9--8---|
|-7h9-7h9-7h9-(9)-7h9-3--|-7h9-7h9-7h9-(9)-7h9------|


  A5B5A5B5A5B5    A5B5F5   A5B5A5B5A5B5    A5B5N.C.
  S E S E S S +S  S E Q    S E S E S S +S  S E S S S S
|------------------------|-----------------------------||
|------------------------|-----------------------------||
|------------------------|-----------------------------||
|------------------------|-----------------------------||
|-7h9-7h9-7h9-(9)-7h9-3--|-7h9-7h9-7h9-(9)-7h9-x-x-x-x-||
|-7h9-7h9-7h9-(9)-7h9-3--|-7h9-7h9-7h9-(9)-7h9-x-x-x-x-||


 Chorus
  D5      F#5  B5         D5      F#5  B5
  H.      Q    W          H.      Q    W
|------------|----------|------------|------|
|------------|----------|------------|------|
|------------|-4--------|------------|-4----|
|-0-------4--|-4--------|-0-------4--|-4----|
|-0-------4--|-2--------|-0-------4--|-2----|
|-0-------4--|----------|-0-------4--|------|


                                       Interlude
  D5      F#5  B5         D5      F#5   B5 A5    C5 F#5G5    A5
                                        Gtr III
  H.      Q    W          H.      Q     E. S +E   E E. S +E  E
|------------|----------|------------||-------------------------|
|------------|----------|------------||-------------------------|
|------------|-4--------|------------||-------------------------|
|-0-------4--|-4--------|-0-------4--||-9--7-(7)-10-4--5-(5)-7--|
|-0-------4--|-2--------|-0-------4--||-9--7-(7)-10-4--5-(5)-7--|
|-0-------4--|----------|-0-------4--||-9--7-(7)-10-4--5-(5)-7--|


  B5 A5    C5 F#5G5    A5  B5 A5    C5 F#5G5    A5
                           Gtrs II, III
  E. S +E   E E. S +E  E   E. S +E   E E. S +E  E
|------------------------|------------------------|
|------------------------|------------------------|
|------------------------|------------------------|
|-9--7-(7)-10-4--5-(5)-7-|-9--7-(7)-10-4--5-(5)-7-|
|-9--7-(7)-10-4--5-(5)-7-|-9--7-(7)-10-4--5-(5)-7-|
|-9--7-(7)-10-4--5-(5)-7-|-9--7-(7)-10-4--5-(5)-7-|


  B5 A5    C5 F#5G5    A5  B5 A5    C5 F#5G5    A5
  E. S +E   E E. S +E  E   E. S +E   E E. S +E  E
|------------------------|-------------------------|
|------------------------|-------------------------|
|------------------------|-------------------------|
|-9--7-(7)-10-4--5-(5)-7-|-9--7-(7)-10-4--5-(5)-7--|
|-9--7-(7)-10-4--5-(5)-7-|-9--7-(7)-10-4--5-(5)-7--|
|-9--7-(7)-10-4--5-(5)-7-|-9--7-(7)-10-4--5-(5)-7--|


  B5 A5    C5 F+sus2           B5 A5    C5 F#5G5    A5  B5 A5    C5 F#5G5    B5
  E. S +E   E  E.  S  +E   E   E. S +E   E E. S +E  E   E. S +E   E E. S +E  E
|----------------------------|------------------------|------------------------|
|----------------------------|------------------------|------------------------|
|-------------10--10-(10)-10-|------------------------|------------------------|
|-9--7-(7)-10--9---9--(9)--9-|-9--7-(7)-10-4--5-(5)-7-|-9--7-(7)-10-4--5-(5)-7-|
|-9--7-(7)-10--8---8--(8)--8-|-9--7-(7)-10-4--5-(5)-7-|-9--7-(7)-10-4--5-(5)-7-|
|-9--7-(7)-10----------------|-9--7-(7)-10-4--5-(5)-7-|-9--7-(7)-10-4--5-(5)-7-|


  B5 A5    C5 F#5G5    A5  B5 A5    F#5F+sus2
  E. S +E   E E. S +E  E   E. S +E   E  E.  S  +E   E
|------------------------|----------------------------||
|------------------------|----------------------------||
|------------------------|-------------10--10-(10)-10-||
|-9--7-(7)-10-4--5-(5)-7-|-9--7-(7)-10--9---9--(9)--9-||
|-9--7-(7)-10-4--5-(5)-7-|-9--7-(7)-10--8---8--(8)--8-||
|-9--7-(7)-10-4--5-(5)-7-|-9--7-(7)-10----------------||


 Bridge
  N.C.
  Gtr II
  E  S S +S   S E  S E  S E  S  S
|---------------------------------|
|---------------------------------|
|---------------------------------|
|---------------------------------|
|---------------------------------|
|-9-12-9-(9)-10-9-12-9-10-9-10h12-|


                            F+susN.C.
  E  S S +S   S E  S E  S E  E   E  S S +S   S E  S E  S E  S  S
|------------------------------|---------------------------------|
|------------------------------|---------------------------------|
|---------------------------10-|---------------------------------|
|----------------------------9-|---------------------------------|
|----------------------------8-|---------------------------------|
|-9-12-9-(9)-10-9-12-9-10-9----|-9-12-9-(9)-10-9-12-9-10-9-10h12-|


                            PM|
  E  S S +S   S E  S E  S E S S
|--------------------------------|
|--------------------------------|
|--------------------------------|
|--------------------------------|
|--------------------------------|
|-9-12-9-(9)-10-9-12-9-10-9-x-x--|


    B5D5 B5    C5 B5D5 B5C5 B5C5 D5   B5D5 B5    C5 B5D5 B5C5 B5F+sus2
    Gtrs II, III
    E  S S +S   S E  S E  S E  S  S   E  S S +S   S E  S E  S E  E
||----------------------------------|------------------------------|
||o---------------------------------|------------------------------|
||----------------------------------|---------------------------10-|
||----------------------------------|----------------------------9-|
||o-9-12-9-(9)-10-9-12-9-10-9-10h12-|-9-12-9-(9)-10-9-12-9-10-9--8-|
||--9-12-9-(9)-10-9-12-9-10-9-10h12-|-9-12-9-(9)-10-9-12-9-10-9----|


  B5D5 B5    C5 B5D5 B5C5 B5C5 D5
  E  S S +S   S E  S E  S E  S  S
|---------------------------------|
|---------------------------------|
|---------------------------------|
|---------------------------------|
|-9-12-9-(9)-10-9-12-9-10-9-10h12-|
|-9-12-9-(9)-10-9-12-9-10-9-10h12-|


 1.                               2.
  B5D5 B5    C5 B5D5 B5C5 B5F+sus2 B5D5 B5    C5 B5
  E  S S +S   S E  S E  S E  E     E  S S +S   S E H
|-------------------------------||----------------------||
|------------------------------o||----------------------||
|---------------------------10--||----------------------||
|----------------------------9--||----------------------||
|-9-12-9-(9)-10-9-12-9-10-9--8-o||-9-12-9-(9)-10-9------||
|-9-12-9-(9)-10-9-12-9-10-9-----||-9-12-9-(9)-10-9------||


 Chorus
  D5      F#5  B5         D5      F#5  B5
  H.      Q    W          H.      Q    W
|------------|----------|------------|------|
|------------|----------|------------|------|
|------------|-4--------|------------|-4----|
|-0-------4--|-4--------|-0-------4--|-4----|
|-0-------4--|-2--------|-0-------4--|-2----|
|-0-------4--|----------|-0-------4--|------|


                                       Outro
  D5      F#5  B5         D5      F#5   A5B5A5B5A5B5    A5B5F5
  H.      Q    W          H.      Q     S E S E S S +S  S E Q
|------------|----------|------------||------------------------|
|------------|----------|------------||------------------------|
|------------|-4--------|------------||------------------------|
|-0-------4--|-4--------|-0-------4--||-7h9-7h9-7h9-(9)-7h9-3--|
|-0-------4--|-2--------|-0-------4--||-7h9-7h9-7h9-(9)-7h9-3--|
|-0-------4--|----------|-0-------4--||-7h9-7h9-7h9-(9)-7h9-3--|


  A5B5A5B5A5B5    A5B5F5    A5B5A5B5A5B5    A5B5F5   A5B5A5B5A5B5    A5B5D5
                                                                         PM--|
  S E S E S S +S  S E  Q    S E S E S S +S  S E Q    S E S E S S +S  S E S S E
|-------------------------|------------------------|---------------------------|
|-------------------------|------------------------|---------------------------|
|---------------------10--|------------------------|---------------------------|
|-7h9-7h9-7h9-(9)-7h9-10--|-7h9-7h9-7h9-(9)-7h9-3--|-7h9-7h9-7h9-(9)-7h9-------|
|-7h9-7h9-7h9-(9)-7h9--8--|-7h9-7h9-7h9-(9)-7h9-3--|-7h9-7h9-7h9-(9)-7h9-0-0-0-|
|-7h9-7h9-7h9-(9)-7h9-----|-7h9-7h9-7h9-(9)-7h9-3--|-7h9-7h9-7h9-(9)-7h9-0-0-0-|


  A5B5A5B5A5B5    A5B5F5   A5B5A5B5A5B5    A5B5F5
  S E S E S S +S  S E Q    S E S E S S +S  S E  Q
|------------------------|-------------------------|
|------------------------|-------------------------|
|------------------------|---------------------10--|
|-7h9-7h9-7h9-(9)-7h9-3--|-7h9-7h9-7h9-(9)-7h9-10--|
|-7h9-7h9-7h9-(9)-7h9-3--|-7h9-7h9-7h9-(9)-7h9--8--|
|-7h9-7h9-7h9-(9)-7h9-3--|-7h9-7h9-7h9-(9)-7h9-----|


  A5B5A5B5A5B5    A5B5F5   A5B5A5B5A5B5    A5B5
  S E S E S S +S  S E Q    S E S E S S +S  S E Q
|------------------------|------------------------*|
|------------------------|------------------------*|
|------------------------|------------------------*|
|-7h9-7h9-7h9-(9)-7h9-3--|-7h9-7h9-7h9-(9)-7h9----*|
|-7h9-7h9-7h9-(9)-7h9-3--|-7h9-7h9-7h9-(9)-7h9----*|
|-7h9-7h9-7h9-(9)-7h9-3--|-7h9-7h9-7h9-(9)-7h9----*|




--------------------------------------------------------------------------------


Duration Legend
---------------
W - whole; H - half; Q - quarter; E - 8th; S - 16th; T - 32nd; X - 64th; a - acciaccatura
+ - note tied to previous; . - note dotted; .. - note double dotted
Uncapitalized letters represent notes that are staccato (1/2 duration)
Irregular groupings are notated above the duration line
Duration letters will always appear directly above the note/fret number it represents the
duration for.  Duration letters with no fret number below them represent rests.  Multi-
bar rests are notated in the form Wxn, where n is the number of bars to rest for.  Low
melody durations appear below the staff

Tablature Legend
----------------
 h   - hammer-on
 p   - pull-off
 b   - bend
 pb  - pre-bend
 r   - bend release (if no number after the r, then release immediately)
 /\  - slide into or out of (from/to "nowhere")
 s   - legato slide
 S   - shift slide
 - natural harmonic
[n]  - artificial harmonic
n(n) - tapped harmonic
 ~   - vibrato
 tr  - trill
 T   - tap
 TP  - trem. picking
 PM  - palm muting
\n/  - tremolo bar dip; n = amount to dip
 \n  - tremolo bar down
 n/  - tremolo bar up
/n\  - tremolo bar inverted dip
 =   - hold bend; also acts as connecting device for hammers/pulls
 <> - volume swell (louder/softer)
 x   - on rhythm slash represents muted slash
 o   - on rhythm slash represents single note slash

Misc Legend
-----------
 |  - bar
||  - double bar
||o - repeat start
o|| - repeat end
*|  - double bar (ending)
 :  - bar (freetime)
 $  - Segno
 &  - Coda
Tempo markers -  = BPM(8/16=s8/s16), where s8 = swing 8ths, s16 = swing 16ths


comments
print report bad tab
I want to post or [tab]
guest
You may want to rate the tab now too:
select rating
Please do not post tabs as comments. Select "correction" instead!