Oops, an error
Loading. Please wait.

Growing Up Tab

135 views 1 this week
2 commentsread comments
1 2 3 4 5
please rate
add to favorites
launch autoscroll
font size
0
reset
how to read this tab
guitar tuner
Tab Pro tools
  • play this tab
  • loop segment
  • change instrument
  • show fretboard
  • metronome
×
Best way to learn
"Growing Up"
Autoscroll
slow
fast
+/-
esc
set tempo
stop
Contributor
Difficulty
Tuning
intermediate
D A D G B E
INTRO

Electric 2
(palm mute)
E|--------|
B|--------|
G|--------|
D|--------|
A|--------|
D|-5-7-12-|

INTRO (part 2)

E|--------------|
B|--------------|
G|--------------|
D|-5-5----5-5-7-|
A|-5-5----5-5-7-|
D|-5-5----5-5-7-|

VERSE

Electric 1

E|--------------------------------------------|
B|-----------------------------------------10-|
G|-11---x3-9---x4-11---x4-12---x4-11---x3--11-|
D|----9------7-------9-------9-------9-----12-|
A|--------------------------------------------|
D|--------------------------------------------|

Electric 2

E|---------|
B|---------|
G|---------|
D|-0-5-7-0-|
A|-0-5-7-0-|
D|-0-5-7-0-|

PRE-CHORUS

Electric 1

E|------------------------------------------|
B|-12---------------------------12----------|
G|----14----x2---------------------14-------|
D|-------12----9-11-12--9-11-12-------12/14-|
A|------------------------------------------|
D|------------------------------------------|

Electric 2

E|-----------|
B|-----------|
G|-----------|
D|-5-7-9-5-7-|
A|-5-7-9-5-7-|
D|-5-7-9-5-7-|

CHORUS

Electric 1

E|---------------------------------------------10-9-|
B|---------10---------12-10---------10--------------|
G|--------------------------------------------------|
D|-9h12h12----9h12h12-------9h12h12----9h12h12------|
A|--------------------------------------------------|
D|--------------------------------------------------|

---------------------------------------------|
---------------------------------------------|
--11-11----11--14-14----14--7-7----7--7-7--6-|
--x--x-----x---x--x-----x---x-x----x--x-x--x-|
--9--9-----9---12-12----12--5-5----5--5-5--4-|
---------------------------------------------|

Electric 2

E|----------------|
B|----------------|
G|----------------|
D|-5-2-9--5-2-9-7-|
A|-5-2-9--5-2-9-7-|
D|-5-2-9--5-2-9-7-|

POST

Electric 1

E|------------------------|
B|------------------------|
G|-4--14--11--16--14--11--|
D|-x--x---x---x---x---x---|
A|-2--12--9---14--12--9---|
D|------------------------|

VERSE (part 1)

Electric 1

E|----------------------------------------|
B|----------------------------------------|
G|----------------------------------------|
D|----------------------------------------|
A|-9-9-9-9--7-7-7-7-------------9-9-9-9-7-|
D|------------------11-11-11-11-----------|

Electric 2

E|--------------------------------------------|
B|--------------------------------------------|
G|--------------------------------------------|
D|--------------------------------------------|
A|-9-9-9-9--7-7-7-7---------------------------|
D|-------------------11-11-11-11--12-12-12-12-|

VERSE (part 2)

Electric 1

E|-----------------------------------------------------------|
B|-----------------------------------------------------------|
G|-----------------------------------------------------------|
D|-12-12-12-12--11-11-11-11-11-11-------------12-12-12-12-11-|
A|--------------------------------12-12-12-12----------------|
D|-----------------------------------------------------------|

Electric 2

E|--------------------------------------------|
B|--------------------------------------------|
G|--------------------------------------------|
D|--------------------------------------------|
A|-9-9-9-9--7-7-7-7---------------------------|
D|-------------------11-11-11-11--12-12-12-12-|

VERSE (part 3)

Electric 1

E|-------------------------------------------|
B|-------------------------------------------|
G|-11----9-----------------------------------|
D|-x--x4-x-x4--------------12-12-12-12-12-11-|
A|-9-----7-----12-12-12-12-------------------|
D|-------------------------------------------|

Electric 2

E|-------------------------------|
B|-------------------------------|
G|-7----6------------------------|
D|-7-x4-6-x4---------------------|
A|-5----4------------9-9-9-9-9-7-|
D|-----------7-7-7-7-------------|

PRE-CHORUS

Electric 1

E|------------------------------------------|
B|-12---------------------------12----------|
G|----14----x2---------------------14-------|
D|-------12----9-11-12--9-11-12-------12/14-|
A|------------------------------------------|
D|------------------------------------------|


Electric 2

E|-------------|
B|-------------|
G|-------------|
D|-5-7-9-4-5-7-|
A|-5-7-9-4-5-7-|
D|-5-7-9-4-5-7-|

CHORUS

POST

Electric 1

E|--------|
B|--------|
G|-7-6----|
D|-x-x-x4-|
A|-5-4----|
D|--------|

Electric 2

E|----------|
B|----------|
G|----------|
D|-12-11----|
A|-12-11-x4-|
D|-12-11----|

BRIDGE (part 1)

Electric 1

E|------10----------10------10----------9----10-9----|
B|-8-10----x2--7-10----x2------10-x2------10------10-|
G|------------------------7--------------------------|
D|-----------------------------------11--------------|
A|---------------------------------------------------|
D|---------------------------------------------------|

Electric 2

E|---------|
B|---------|
G|---------|
D|-2-0-9-7-|
A|-2-0-9-7-|
D|-2-0-9-7-|

BRIDGE (part 2)

Electric 1
  (pm)   (full strums)
E|----- --------------|
B|----- --------------|
G|----- -7-9-11-14-12-|
D|-5-7- -x-x-x--x--x--|
A|-5-7- -5-7-9--12-10-|
D|-5-7- --------------|

Electric 2
   (pm) (full strums)
E|------ -----------|
B|------ -----------|
G|------ -----------|
D|-5-7-- -9-7-0-4-5-|
A|-5-7-- -9-7-0-4-5-|
D|-5-7-- -9-7-0-4-5-|

CHORUS
comments
We did not receive enough feedback on this tab! Please rate:
print report bad tab
1 2 3 4 5
2 comments total.
0 reply
BLUE3UN wrote on August 2 2013, 04:06 pm

This tab is missing the Electric 2 for the chorus, i just uploaded it so it should be on soon

0 reply
BLUE3UN wrote on August 3 2013, 06:38 pm

Its not going up as fast so here it is

|----------------|
|----------------|
|----------------|
|-5-2-9--5-2-9-7-|
|-5-2-9--5-2-9-7-|
|-5-2-9--5-2-9-7-|

I want to post or [tab]
guest
You may want to rate the tab now too:
select rating
Please do not post tabs as comments. Select "correction" instead!